Mando Diao - Band Chords & Tabs

 

Band Chords & Tabs

Mando Diao Chords & Tabs

Version: 1 Type: Bass Tab 0 ratings
1 star 2 stars 3 stars 4 stars 5 stars
comments

Band Bass Tab

Please note that this tab is not tabbed by me, I just thought that this site needed
some Mando bass tabs. Anyhow, enjoy!


Intro
G|----------------------------------------------------------------------|
D|----------------------------------------------------------------------|
A|----------------------------------------------------------3-/--3------|
E|--3-3-3-3-3-3-3-3-3-3-3-3-3-3-3-3-3-3-3-3-3-3-3-3-3-3-3-3-------------|

Verse1
G|--------------------------------0---------------2-------------------|
D|----------------0-2-----2---0-2---3-----3---2-3---5-----5---5-5-0---|
A|--3-----3---2-3-----------------------------------------------------|
E|--------------------------------------------------------------------|

Verse2
G|--------------------------------0-----------------------------------|
D|----------------0-2-----2---0-2---3-----3---3-3---3-----3---3-3-----|
A|--3-----3---2-3-------------------------------------------------3/--|
E|--------------------------------------------------------------------|

Pre-Chorus1
G|--------------------------------------------------------------------|
D|--------7---7-7---------7---7-7---------5---5-5---------5---5-5-----|
A|--5---------------5-------------5-3---------------3-------------3---|
E|--------------------------------------------------------------------|

G|----------------------------------------------------------------------|
D|--------7---7-7---------7---7-7---5-5-5-5-5-5-5-0-5-0-5-0-5-0-5-0-----|
A|--5---------------5-------------5-----------------------(-3-/--3-)----|
E|----------------------------------------------------------------------|
					use slide before 2nd chorus
Chorus1
G|--------------------------------------------------------------------|
D|------------------2-2-2-2-2-2-2-2-3-3-3-3-3-3-3-3-5-5-5-5-5-5-5-5---|
A|--3-3-3-3-3-3-3-3---------------------------------------------------|
E|--------------------------------------------------------------------|
[ Tab from: http://www.guitartabs.cc/tabs/m/mando_diao/band_btab.html ]
Chorus2
G|-------------------------------------------------------------------|
D|------------------2-2-2-2-2-2-2-2-3-3-2-2-3-3-4-4-5-5-5-5-5-5-5-5--|
A|--3-3-3-3-3-3-3-3--------------------------------------------------|
E|-------------------------------------------------------------------|

Pre-Chorus2
G|--------------------------------------------------------------------|
D|--------------------------------------------------------------------|
A|--5---5----------5---5------------3---3-----------3---3-----0-2-3---|
E|--------------------------------------------------------------------|

G|--------------------------------------------------------------------|
D|----------------------------------5-5-5-5-5-5-5-5-5-5-5-5-5-5-5-5---|
A|--5---5----------5---5----------------------------------------------|
E|--------------------------------------------------------------------|

G|----------------------------------------------------------------------|
D|--6---6---6------3---3---3--------5-5-5-5-5-5-5-5-5-5-5-5-------------|
A|----------------------------------------------------------3-/--3------|
E|----------------------------------------------------------------------|

Chorus3
G|--------------------------------0---------------2---------------------|
D|----------------0-2-2-2-2-2-0-2---3-3-3-3-3-2-3---5-5-5-5-------------|
A|--3-3-3-3-3-2-3-------------------------------------------3-/--3------|
E|----------------------------------------------------------------------|

Outro
G|--------------------------------0---------------2-------------------|
D|----------------0-2-----2---0-2---3-----3---2-3---5-----------------|
A|--3-----3---2-3---------------------------------------------0---2---|
E|--------------------------------------------------------3-----------|

G|--------------------------------0---------------2-------------------|-----|
D|----------------0-2-----2---0-2---3-----3---2-3---5-----5---5-5-----|-----|
A|--3-----3---2-3-----------------------------------------------------|--3--|
E|--------------------------------------------------------------------|-----|


Intro
Chorus1 * 2

Verse1
Verse2
Pre-Chorus1
Chorus1 * 4
Verse1 * 2

Verse1
Verse2
Pre-Chorus1
Chorus1 * 3
Chorus2
Verse1 * 2

Verse1 * 2

Pre-Chorus2
Chorus1 * 3
Chorus3

Outro
Comments