Mandatory Death - Mdk Chords & Tabs

 

Mdk Chords & Tabs

Mandatory Death Chords & Tabs

Version: 1 Type: Tab 0 ratings
1 star 2 stars 3 stars 4 stars 5 stars
comments

Mdk Tab

   
Mandatory Death
M.D.K. (Mandatory Death Nights)

This Is a local Heavy Metal
Band from winnipeg. I know them because
my guitar teacher produced the album,
and I was friends with the guitarist
when I was young.  He lives Right Behind Me

Standard Tuning

    Intro (Guitar 1)
[-----------------------------------]
[-----------------------------------]
[-----0-----------------------------]
[-2-2--4-2---0-0-4-2-0-----2--------]
[----------------------3-3---5-3-2--]
[-----------------------------------]

    (Guitar 2)
[------------------------------------]
[------------------------------------]
[-0-0-4-2-0-----2-----------0--------]
[------------4-4--5-4---2-2---4-2-1--]
[------------------------------------]
[------------------------------------]
[ Tab from: http://www.guitartabs.cc/tabs/m/mandatory_death/mdk_tab.html ]
Chords   E    D    C    B
[----------------------------]
[--------5----3--------------]
[--------4----2----5----4----]
[--------2----0----5----4----]
[------------------3----2----]
[----------------------------]

PreChorus
[-------------------]
[-------------------]
[-------------------]
[-2-3-4-5-4-5-6-7---]
[-2-3-4-5-4-5-6-7---]
[-0-1-2-3-2-3-4-5---]

Chorus
[-------------------]
[-------------------]
[-------------------]
[-2-3-4-5-4-5-6-7---]
[-2-3-4-5-4-5-6-7---]
[-0-1-2-3-2-3-4-5---]

After Chorus (Part 1)
[-------------------]
[-------------------]
[-------------------]
[-2-3-4-5-4-5-6-7---]
[-2-3-4-5-4-5-6-7---]
[-0-1-2-3-2-3-4-5---]

After Chorus (Part 2)
[----------------------]
[----------------------]
[----------------------]
[-2-3-4-5-4------------]
[-2-3-4-5-4--Let Ring--]
[-0-1-2-3-2------------]
Comments