Mandatory Death - Awaited Hell Chords & Tabs

 

Awaited Hell Chords & Tabs

Mandatory Death Chords & Tabs

Version: 1 Type: Tab 0 ratings
1 star 2 stars 3 stars 4 stars 5 stars
comments

Awaited Hell Tab

Mandatory Death
Awaited Hell  (Standard Tuning)

Mandatory Death is a local Thrash
band from winnipeg.  
This is off their first
album, Clashing of The 
Swords.  Watch out for
these guys.  The're 
gonna make it big one 
day.

           Intro/verses
[---------------------------]
[---------------------------]
[---------------------------]  Guitar 2 P.M.
[---------------------------]  Guitar 1 no P.M.
[-----4-----3-----4-----3---]
[-232---232---232---232-----]
[ Tab from: http://www.guitartabs.cc/tabs/m/mandatory_death/awaited_hell_tab.html ]
           Chorus          "My Awaited Hell!"
[-------------------------|---------------------]
[-------------------------|---------------------]
[-3-333-4-444-5-555--7/9--|-3-------------------]
[-3-333-4-444-5-555--7/9--|-3-------------------]
[-1-111-2-222-3-333--5/7--|-1-------------------]
[-------------------------|---------------------]

           Bridge       1         2
[--------------------|--------|-------]
[--------------------|--------|-------]
[--------------------|--------|-------]
[-------4----5----4--|----4b--|-42----]
[-------4----5----4--|-32-----|----54-]
[-///-222--333--222--|--------|-------]
      ...  ...  ...
                        1         2
[--------------------|--------|-------]
[--------------------|--------|-------]
[--------------------|--------|-------]
[-------6----7----6--|----6b--|-64----]
[-------6----7----6--|-54-----|----76-]
[-----444--555--444--|--------|-------]
      ...  ...  ...

Guitar Solos


Thats Pretty Much it

Check out the website, www.mandatorydeath.com for more info




"You Think I'm lying
I'm f--kin' telling the truth.
Mandatory Death is Bulletproof."

   M.D.K.
Comments