Manateee - Gorda Chata E Feia Chords & Tabs

 

Gorda Chata E Feia Chords & Tabs

Manateee Chords & Tabs

Version: 1 Type: Tab 0 ratings
1 star 2 stars 3 stars 4 stars 5 stars
comments

Gorda Chata E Feia Tab

   
FALA SEEEEEEEEEEEEEEERIO AI

Manateee eh a banda mais animal do mundo!!
Fala ai Bruno Ferri, Rafael Ribeiro, Ricardo Rego, e eu
Os cara mas animal
Essa eh uma musica do cd 3-8

Gorda, Chata, e Feia

Intro
-----------------------------------
-----------------------------------
-----------------------------------
------------------------------------
------------0-0-9-7----------0-0-9-7
--0-0-9-7------------0-0-9-7---------

Chords: Am C
[ Tab from: http://www.guitartabs.cc/tabs/m/manateee/gorda_chata_e_feia_tab.html ]
Chorus(power chords)
------------------------------------
------------------------------------
-------------------------------------
9--------7----------5----------------
9--------7----------5-------------
7--------5----------3----------------

Bridge

-------------------------------------
------------------------------------
------9--------7----5---------7-----
----9--9------7----5-5-------7-------
---9----9----7----5---5-----7-------
--7------7--5----3------3--5--------

NOIS EH ANIMAL!!!!


Comments