Manatee - Moment One Chords & Tabs

 

Moment One Chords & Tabs

Manatee Chords & Tabs

Version: 1 Type: Tab 0 ratings
1 star 2 stars 3 stars 4 stars 5 stars
comments

Moment One Tab

Manatee - Moment One
Submitted By: Jason
EMail: phatj33@hotmail.com
From the cd We're All Virgins
tabbed by SilentJSucks tablaturepalm mute first 2 notes of each pitch
e|------------------------------|
B|------------------------------|
G|-6-6-6---------9-9-9----------|
D|-6-6-6--7-7-7--9-9-9--9-9-9---|  repeat 4 X
A|-4-4-4--7-7-7--7-7-7--9-9-9---|
E|--------5-5-5---------7-7-7---|


"I fall down, i break down...."
e|------------------------------------|
B|------------------------------------|
G|-6--6--------------9--9-------------|
D|-6--6---7--7-7-7---9--9---9--9-9-9--| repeat 4 x
A|-4--4---7--7-7-7---7--7---9--9-9-9--|
E|--------5--5-5-5----------7--7-7-7--|
[ Tab from: http://www.guitartabs.cc/tabs/m/manatee/moment_one_tab.html ]
e|---------------------------------|
B|---------------------------------|
G|---------------------------------|
D|9-9-9-9-9-9-9-9-9-9-9-9----------|
A|9-9-9-9-9-9-9-9-9-9-9-9----------|
E|7-7-7-7-7-7-7-7-7-7-7-7----------|


"I let it go....."
e|---------------|
B|---------------|
G|9--7-----------|
D|9--7--9-9-7----| repeat 4 x
A|7--5--9-9-7----|
E|------7-7-5----|e|------------------|
B|------------------|
G|-6-------9--------|
D|-6---7---9---9----|
A|-4---7---7---9----|
E|-----5-------7----|

e|-----------|
B|-----------|
G|-6---9-----|
D|-6-7-9-----|
A|-4-7-7-----|
E|---5-------|"I fall down, i break down...."
e|------------------------------------|
B|------------------------------------|
G|-6--6--------------9--9-------------|
D|-6--6---7--7-7-7---9--9---9--9-9-9--| repeat 4 x
A|-4--4---7--7-7-7---7--7---9--9-9-9--|
E|--------5--5-5-5----------7--7-7-7--|


"I let it go....."
e|---------------|
B|---------------|
G|9--7-----------|
D|9--7--9-9-7----| repeat 4 x
A|7--5--9-9-7----|
E|------7-7-5----|
Comments