Mana - Me Vale Chords & Tabs

 

Me Vale Chords & Tabs

Mana Chords & Tabs

Version: 2 Type: Bass Tab 0 ratings
1 star 2 stars 3 stars 4 stars 5 stars
comments

Me Vale Bass Tab

   
Mana - Me Vale
Tab Correction by: Andres A. Valles 
Original tab posted By: Joel Aponte
ALbum: Donde Jugaran Los Ninos?

Standard Tunning (E,A,D,G)

I want to give credit for the original tab to Joel Aponte, but I have
seen Mana in concert many times and this tab was not correct. This is 
How the bassist from Mana plays it in concert. So, Enjoy!

Intro
G|--------------------------------------|  2X
D|-----------------------9---------4----|
A|------4--------4---777--7---5555--5---|
E|-5555--5--5555--5---------------------|

Verse
G|--------------------------------------|  
D|-----------------------9---------4----| 9x
A|------4--------4---777--7---5555--5---|
E|-5555--5--5555--5---------------------|
[ Tab from: http://www.guitartabs.cc/tabs/m/mana/me_vale_btab_ver_2.html ]
Variation of Verse 
G|--------------------------------------| (Played the 3rd, 5th & 6th
D|-----------------------7---------5----|  time the verse is played)
A|------4--------4---777--7---5555--5---|
E|-5555--5--5555--5---------------------|


Chorus
G|--------------------------------------|  4X 
D|--------------------------------------|
A|--------------------------555555555---|
E|-5555555555---222222222---------------|

Bridge
G|-------------------------------------------|  
D|-------------------------------------------|
A|--7777777---9999999---555555---------------|
E|------------------------------5555555------|

G|-------------------------------------------|  
D|-------------------------------------------|
A|--7777777---9999999---555555555555---------|
E|-------------------------------------------|


Solo - (same as chorus)

Post Solo (same as verse)

Outro-
Chorus 2x
Verse 2x
Chorus 4x

E-mail @ AVR18923@aol.com
Comments