Mana - En El Muelle De San Blas Chords & Tabs

 

En El Muelle De San Blas Chords & Tabs

Mana Chords & Tabs

Version: 4 Type: Tab 0 ratings
1 star 2 stars 3 stars 4 stars 5 stars
comments

En El Muelle De San Blas Tab

   
     Em    A       D5     G
e ---7-----5-------5------3------
B ---8-----5--0----5------3------
G ---9-----6--2----7--0---4------
D ---9-----7--2----7--2---5------
A ---7-----7--2----5--3---5------
E ---7-----5--0----5--0---3------



    Em		      A		       D5	        G
e ---------7-----------------5----------------5----------------3---3----
B ------8----8--8---------5----5--5--------5----5--5--------3----3---3--
G ----9---9---9--9------6---6---6--6-----7---7---7--7-----4---4---4-----
D ---------------------------------------------------------------------
A --7----------------------------------5--------------------------------
E --------------------5---------------------------------3---------------

Coro:
[ Tab from: http://www.guitartabs.cc/tabs/m/mana/en_el_muelle_de_san_blas_tab_ver_4.html ]
    D5		   A               D5             A
e --------0--------------0---------------2--------------0------------
B -----3----3--3------2----2--2-------3----3--3------2----2--2-------
G ----2--2---2--2----2--2---2--2-----2--2---2--2----2--2---2--2------
D --0------------------------------0---------------------------------
A -----------------0------------------------------0------------------
E -------------------------------------------------------------------

    D5             A               G               A
e --------2--------------0---------------3----------------0----------
B -----3----3--3------2----2--2-------3----3--3-------2-----2--2-----
G ----2--2---2--2----2--2---2--2-----4--4---4--4-----2--2----2--2----
D --0----------------------------------------------------------------
A -----------------0-------------------------------0-----------------
E ---------------------------------3---------------------------------

Esta cancion es muy facil para tocar, pero deben de tener agilidad
para hacer los slides, sino no se oye muy bien
Comments