Mana - En El Muelle De San Blas Chords & Tabs

 

En El Muelle De San Blas Chords & Tabs

Mana Chords & Tabs

Version: 3 Type: Tab 0 ratings
1 star 2 stars 3 stars 4 stars 5 stars
comments

En El Muelle De San Blas Tab

e-------3----7-----3-----------------5------------
B----5----5-----5-----5--------5-----------5------
G---------------------------6-----6-----6-----6---
D-------------------------------------------------
A------------------------0------------------------
E-0-----------------------------------------------


e-------------5---------------------3-----2-------
B-------5-----------5--------0-3-0-----3-----3----
G----7-----7-----7-----7--------------------------
D-0-----------------------------------------------
A-------------------------------------------------
E-------------------------3-----------------------
[ Tab from: http://www.guitartabs.cc/tabs/m/mana/en_el_muelle_de_san_blas_tab_ver_3.html ]
Comments