Mana - En El Muelle De San Blas Chords & Tabs

 

En El Muelle De San Blas Chords & Tabs

Mana Chords & Tabs

Version: 1 Type: Tab 0 ratings
1 star 2 stars 3 stars 4 stars 5 stars
comments

En El Muelle De San Blas Tab

   
Artist:  Mana

Song:    En el muelle de San Blas

Tuning: E A D G B E (Standard)

Tabbed by: Miguel Puga





  Em                         A                                     
||--------------0-----------|--------------0-----------|
||-----------0-----0-----0--|-----------2-----2-----2--|
||--------0-----------0-----|--------2-----------2-----|
||-----2--------------------|-----2--------------------|
||--------------------------|--0-----------------------|
||--0-----------------------|--------------------------|
                                                                      
[ Tab from: http://www.guitartabs.cc/tabs/m/mana/en_el_muelle_de_san_blas_tab.html ]
 D                             G                           Chords: Em    A     D     G
|-----------------2-----------|--------------3-----------||--------0--|--0--|--2--|--3--|--
|--------------3-----3-----3--|-----------0-----0-----0--||--------0--|--2--|--3--|--0--|--
|--------2--------------2-----|--------0-----------0-----||--------0--|--2--|--2--|--0--|--
|--0--0-----------------------|-----0--------------------||--------2--|--2--|--0--|--0--|--
|-----------------------------|--------------------------||--------2--|--0--|-----|--2--|--
|-----------------------------|--3-----------------------||--------0--|-----|-----|--3--|--
                                                                      


                                                                      

Comments