Mana - En El Muelle De San Blas Chords & Tabs

 

En El Muelle De San Blas Chords & Tabs

Mana Chords & Tabs

Version: 2 Type: Bass Tab 0 ratings
1 star 2 stars 3 stars 4 stars 5 stars
comments

En El Muelle De San Blas Bass Tab

   
"En el Muelle de San Blas" by Mana, from Suenos Liquidos
Transcribed by Francisco Carranza             
E-mail: fec3@ou.edu (Comments/corrections/questions)

Explanation:
s = sixteenth, e = eigth, q = quarter, h = half, w = whole
Duration letters will be shown either above or below the tab      
; = rest (the rest's duration will also appear above/below tab)
\ = slide, h = hammer-on, p = pull-off, b = bend, x = muted
Upper case letters stand for dotted notes (e.g. E = e + s)
Parenthesis are used to indicate tied notes (i.e. unstroked)

NOTICE: The fingering for this tab was not analysed thouroughly.
        In other words, there will be places where it will probably
        makes more sense to play the exact same note in a different
        string in order to obtain less moving around.  Have fun! 

Tuning: E A D G 
Time Signature: 4/4
Tempo: 100 (approximately)


Intro

w  w  w  w  q (E) E s E q  E E E E s E E E  E E E E s E q      E E s E E E  
|--|--|7-|--|------------2-|----------------|------------2-|----------------|
|--|7-|--|5-|2-(2)-4-4-5---|------7-7-5-4-5-|0-0-;-4-4-5---|------7-7-5-4-5-|
|7-|--|--|--|--------------|0-0-;-----------|--------------|----------------|
|--|--|--|--|--------------|----------------|--------------|3-3-;-----------|
                                                            E E               


Lyrics 1

E E E E s E q  E E E E s E q  E E E E s E q               
|--------------|--------------|--------------|--------------|
|2-2-;-2-2-4-5-|--------------|0-0-;-0-0-4-5-|--------------|
|--------------|0-0-;-4-4-4-7-|--------------|--------------|
|--------------|--------------|--------------|3-3-;-3-3-3-2-|
                                              E E E E s E q                 

E E E E s E q  E E E E s E E E  E E E E s E q      E E s E E E   
|--------------|----------------|--------------|----------------|
|2-2-;-2-2-4-5-|----------------|0-0-;-0-0-4-5-|------7-7-5-4-5-|
|--------------|0-0-;-0-0-0-4-7-|--------------|----------------|
|--------------|----------------|--------------|3-3-;-----------|
                                 E E                             

E E E E s E q  E E E E s E q      E E s E q      E E s E E E 
|--------------|--------------|--------------|----------------|
|2-2-;-2-2-4-5-|--------------|------0-0-2-4-|------0-0-2-4-0-|
|--------------|0-0-;-0-0-0-4-|--------------|----------------|
|--------------|--------------|2-2-;---------|3-3-;-----------|
                               E E            E E             

E E E E s E q  E E E E s E q      E E s E q      E E s E E E  
|------------2-|--------------|--------------|----------------|
|2-2-;-4-4-5---|--------------|------0-0-2-4-|------0-0-2-4-0-|
|--------------|0-0-;-0-0-0-4-|--------------|----------------|
|--------------|--------------|2-2-;---------|3-3-;-----------|
                               E E            E E                                              

E E E E s E q  E E E E s E E E      E E s E q      E E s E E E  
|------------2-|----------------|--------------|----------------|
|2-2-;-4-4-5---|------7-7-5-4-5-|------0-0-2-4-|------0-0-2-4-0-|
|--------------|0-0-;-----------|--------------|----------------|
|--------------|----------------|2-2-;---------|3-3-;-----------|
                                 E E            E E                                              

E E E E s E q  E E E E s E E E      E E s E q      E E s E E E  
|------------2-|----------------|--------------|----------------|
|2-2-;-4-4-5---|------7-7-5-4-5-|------0-0-2-4-|------7-7-5-4-5-|
|--------------|0-0-;-----------|--------------|----------------|
|--------------|----------------|2-2-;---------|3-3-;-----------|
                                 E E            E E                                              


Lyrics 2 and 3

    E E E E s E q  E E E E s E E E  E E E E s E q      E E s E E E  
||----------------|----------------|--------------|----------------|
||*-2-2-;-2-2-4-5-|----------------|0-0-;-0-0-4-5-|------7-7-5-4-5-|
||*---------------|0-0-;-0-0-0-4-7-|--------------|----------------|
||----------------|----------------|--------------|3-3-;-----------|

                                                   E E                                              

E E E E s E q  E E E E s E E E  E E E E s E q      E E s E E E  
|--------------|----------------|--------------|----------------|
|2-2-;-2-2-4-5-|----------------|0-0-;-0-0-4-5-|------7-7-5-4-5-|
|--------------|0-0-;-0-0-0-4-7-|--------------|----------------|
|--------------|----------------|--------------|3-3-;-----------|
                                                E E                   

E E E E s E q  E E E E s E q      E E s E q      E E s E E E 
|--------------|--------------|--------------|----------------|
|2-2-;-2-2-4-5-|--------------|------0-0-2-4-|------7-7-5-4-5-|
|--------------|0-0-;-0-0-0-4-|--------------|----------------|
|--------------|--------------|2-2-;---------|3-3-;-----------|
                               E E            E E             

E E E E s E q  E E E E s E E E      E E s E q
|--------------|----------------|--------------|--------------|
|2-2-;-2-2-4-5-|------7-7-5-4-5-|------0-0-2-4-|--------------|
|--------------|0-0-;-----------|--------------|--------------|
|--------------|----------------|2-2-;---------|3-3-3-3-5-5-5-|
                                 E E            E E E E E E q

[ Tab from: http://www.guitartabs.cc/tabs/m/mana/en_el_muelle_de_san_blas_btab_ver_2.html ]
Chorus

E E E E s E q  E E E E s E q  E E E E s E q  E E E E s E q  
|--------------|--------------|--------------|--------------|
|------4-4-5-7-|------4-4-5-7-|------4-4-5-7-|--------------|
|5-5-;---------|4-4-;---------|2-2-;---------|4-4-;-0-0-0-4-|
|--------------|--------------|--------------|--------------|

                   
E E E E s E q  E E E E s E q      E E s E q      E E s E E E 
|--------------|--------------|--------------|----------------|
|------4-4-5-7-|------4-4-5-7-|------4-4-5-7-|------4-4-5-7-4-|
|5-5-;---------|4-4-;---------|--------------|----------------|
|--------------|--------------|3-3-;---------|5-5-;-----------|
                               E E            E E                 


Pre-Lyrics 3

[============================== 1 ===================================]

w  (w)  q E s E q  E E E E s E E E  E E E E s E q      E E s E E E  
|--|----|--------2-|----------------|------------2-|-----------------||
|--|----|2-4-4-5---|------7-7-5-4-5-|0-0-;-4-4-5---|------7-7-5-4-5-*||
|5-|(5)-|----------|0-0-;-----------|--------------|----------------*||
|--|----|----------|----------------|--------------|3-3-;------------||
                                                    E E                           


Interlude

[============================== 2 ============>

q E E s E q  q E E s E q                 E s s E E E  
|------------|------------|------------|----2-4-2-----|
|------------|------------|------------|----------5-4-|
|2-;-2-2-0-5-|2-;-2-2-0-5-|------------|--------------|
|------------|------------|3-;-3-3-3-5-|3-;-----------|
                           q E e s e q  q                                        

q E E s E q  q E E s E q                E E E E q q   
|------------|------------|------------|-------------|
|------------|------------|------------|/7-7-7-7-----|
|2-;-2-2-0-5-|2-;-2-2-0-5-|------------|---------4-4-|
|------------|------------|5-;-5-5-5-5-|-------------|
                           q E E s E q                                                            

                 
Chorus

E E E E s E q  E E E E s E q  E E E E s E q  E E E E s E q
|--------------|--------------|--------------|--------------|
|------4-4-5-7-|------4-4-5-7-|------4-4-5-7-|--------------|
|5-5-;---------|4-4-;---------|2-2-;---------|4-4-;-0-0-0-4-|
|--------------|--------------|--------------|--------------|
                                                                                                    
                              
E E E E s E q  E E E E s E q      E E s E q           q q  
|--------------|--------------|--------------|-------------|
|------4-4-5-7-|------4-4-5-7-|------4-4-5-7-|--------/7---|
|5-5-;---------|4-4-;---------|--------------|-----------4-|
|--------------|--------------|3-3-;---------|5-5-5-5------|
                                              E E E E       

E E E E s E q  E E E E s E q  E E E E s E q  E E E E s E E E
|--------------|--------------|--------------|----------------|
|------4-4-5-7-|------4-4-5-7-|------4-4-5-7-|----------------|
|5-5-;---------|4-4-;---------|2-2-;---------|4-4-;-0-0-0-4-7-|
|--------------|--------------|--------------|----------------|


E E E E s E q  E E E E s E q      E E s E q      E E s E E E 
|--------------|--------------|--------------|----------------|
|------4-4-5-7-|------4-4-5-7-|------4-4-5-7-|------4-4-5-7-4-|
|5-5-;---------|4-4-;---------|--------------|----------------|
|--------------|--------------|3-3-;---------|5-5-;-----------|
                               E E            E E                 

                 
Pre-Outro

  w   (w)   W   W                                 
|---|-----|---|---|--------------|--------------|
|---|-----|---|---|--------------|--------------|
|-5-|-(5)-|-;-|-;-|--------------|--------------|
|---|-----|---|---|3-3-;-3-;-3-;-|3-3-;-3-;-3-;-|
                   q e s s e e q  q e s s e e q  

  w   W              E E  E E E E h 
|---|---|----------------|----------|
|---|---|------------5-5-|5-5-5-5---|
|-;-|-;-|----------------|--------0-|
|---|---|3-3-;-3-;-3-----|----------|
         q E s s E E   


Outro                                           

q e e e e e e  e e e s s s s e q                           s e s s s s s   
|--------------|------------------|----------------|----------------------|
|--------------|------------------|----------------|----------------------|
|5-5-5-5-5-5-5-|5-5-5-0-5-;-5-;-0-|----------------|--------2-2-2-;-2-4-;-|
|--------------|------------------|3-3-3-3-3-3-3-3-|3-3-3-3---------------|
                                   E E E E E E E E  E E E E                                   

E E E s s s E E E  E E E E E E q                           E s E s s s   
|------------------|--------------|----------------|--------------------|
|------------------|--------------|----------------|--------------------|
|5-5-5-0-5-;-5-5-5-|5-5-5-5-5-5-0-|----------------|--------2-;-2-2-4-;-|
|------------------|--------------|3-3-3-3-3-3-3-3-|3-3-3-3-------------|
                                   E E E E E E E E  E E E E                               

    q E E E E E s s  E E E E q q                       s E E s s s   
||------------------|------------|------------|---------------------||
||*-----------------|------------|------------|--------------------*||
||*-5-5-5-5-5-5-5-5-|5-5-5-5-0-2-|------------|--------2-2-2-2-4-;-*||
||------------------|------------|3-3-3-3-3-3-|3-3-3-3--------------||
                               q E E E E q  E E E E             (fade)


Created with TablEdit http://www.tabledit.com/
Comments