Mana - Como Dueles En Los Labios Chords & Tabs

 

Como Dueles En Los Labios Chords & Tabs

Mana Chords & Tabs

Version: 3 Type: Tab 0 ratings
1 star 2 stars 3 stars 4 stars 5 stars
comments

Como Dueles En Los Labios Tab

FIRST PART PLAY 2 TIMES
E-------------0------------------------|
B--3--3--3----------3--3--3--1--0------|
G---0--0--0-----0-----2--2--2----------|
D--------------------------------------|
A--------------------------------------|
E--------------------------------------|
[ Tab from: http://www.guitartabs.cc/tabs/m/mana/como_dueles_en_los_labios_tab_ver_3.html ]
Flute
E------12----------------------------------------|
B--15------15------13--12-----13--12-------------|
G--------------14----------14---------14--11--12-|
D------------------------------------------------|
A------------------------------------------------|
E------------------------------------------------|

done by Jordon Tashian
Comments