Mana - Clavado En Un Bar Chords & Tabs

 

Clavado En Un Bar Chords & Tabs

Mana Chords & Tabs

Version: 3 Type: Tab 0 ratings
1 star 2 stars 3 stars 4 stars 5 stars
comments

Clavado En Un Bar Tab

song by: mana
pre-played by: saul borboa
songs name: clavado en un bar
[ Tab from: http://www.guitartabs.cc/tabs/m/mana/clavado_en_un_bar_tab_ver_3.html ]
e------------------------------------------------------------|
b------------------------------------------------------------|
g------------------------------------------------------------|
d---------9------------9-------------------------------------|
a---9---7--------9---7--------4-----4------------------------|
e-7------------7------------2-----2--------------------------|

     repeat this 3 times then do this in the end
e------------------------------------------------------------|
b------------------------------------------------------------|
g------------------------------------------------------------|
d---------9------------9-------------------------------------|
a---9---7--------9---7--------6------------------------------|
e-7------------7------------4--------------------------------|
Comments