Man Or Astro Man - Gargantuas Last Stand Chords & Tabs

 

Gargantuas Last Stand Chords & Tabs

Man Or Astro Man Chords & Tabs

Version: 1 Type: Tab 0 ratings
1 star 2 stars 3 stars 4 stars 5 stars
comments

Gargantuas Last Stand Tab

#----------------------------------PLEASE NOTE---------------------------------#
#This file is the author's own work and represents their interpretation of the #
#song. You may only use this file for private study, scholarship, or research. #
#------------------------------------------------------------------------------##
#

Tabbed by Brian (Ansigod) McCall  5-19-96

GARGANTUA'S LAST STAND - by Man...or Astro-Man?
=========== ==== =====   available on Destroy All Astromen!

*1

Palm muting throughout

|--------------------------------------------------------------------
|--------------------------------------------------------------------
|--------------------------------------------------------------------
|--------------------------------------------------------------------
|-----1-2-1------------3-2------1-2-1--------------------------------
|-0-0-------2--3-2-3-2------0-0-------2--3-2-3-2-3-2-----------------

*2                                 

|--------------------------------------------------------------------
|--------------------------------------------------------------------
|-2--2-2----5--5-5-4-2--4----4--4--4--2--2-2----5--5-5-4-2--4--------
|--------2--------------4----4--4--4---------2--------------4----2-1-
|-----------------------2----2--2--2------------------------2--------
|--------------------------------------------------------------------

|--------------------------------------------------------------------
|--------------------------------------------------------------------
|--------------------------------------------------------------------
|-2-1-2-1-2-1-2-1-2--------------------------------------------------
|--------------------------------------------------------------------
|-------------------0------------------------------------------------

*3

|-0--------5--------7---------8-----7------8-----7-------0----------5
|-0--------5--------7---------8-----7------8-----7-------0----------5
|-1--------6--------8---------9-----8------9-----8-------1----------6
|-2----X-X-7----X-X-9----X-X-10-X-X-9-X-X-10-X-X-9-------2----------7
|-2----X-X-7----X-X-9----X-X-10-X-X-9-X-X-10-X-X-9-------2----------7
|-0----X-X-5----X-X-7----X-X--8-X-X-7-X-X--8-X-X-7-0-0-0-0----5-5-5-5

|-------7---------8-----7------8-----7-------------------------------
|-------7---------8-----7------8-----7-------------------------------
|-------8---------9-----8------9-----8-------------------------------
|-------9----X-X-10-X-X-9-X-X-10-X-X-9-------------------------------
|-------9----X-X-10-X-X-9-X-X-10-X-X-9-------------------------------
|-7-7-7-7----X-X--8-X-X-7-X-X--8-X-X-7-------------------------------

*4
[ Tab from: http://www.guitartabs.cc/tabs/m/man_or_astro_man/gargantuas_last_stand_tab.html ]
|--------------------------------------------------------------------
|--------------------------------------------------------------------
|--------------------------------------------------------------------
|-2--2-2----------5--5-5-4-2-----------------------------------------
|--------0--0-0-0-------------0-1h2-2-1h2-2-1h2-1h2-2-1h2-2-1h2------
|--------------------------------------------------------------------

|--------------------------------------------------------------------
|--------------------------------------------------------------------
|--------------------------------------------------------------------
|-2--2-2----------5--5-5-4-2-----------------------------------------
|--------0--0-0-0-------------3-3-3-3-3-3-3-3-3-3-3-3-2-1-0----------
|-----------------------------------------------------------3-2-1-0-0

-first time only

|----12--------------------------------------------------------------
|----12--------------------------------------------------------------
|----12--------------------------------------------------------------
|--------------------------------------------------------------------
|--------------------------------------------------------------------
|---------14\--------------------------------------------------------

*5

(slight palm muting)

|-12-12-11-11-10-10-9-9-8-8-7-6\--12-12-11-11-10-10-9-9-8-8-7-6\-----
|-12-12-11-11-10-10-9-9-8-8-7-6\--12-12-11-11-10-10-9-9-8-8-7-6\-----
|--------------------------------------------------------------------
|--------------------------------------------------------------------
|--------------------------------------------------------------------
|--------------------------------------------------------------------

|---------------------------------------------------12-12-11-11-10-10
|-/10-10-10-10-11-11-11-11-13-13-13-13-11-10-11-10--12-12-11-11-10-10
|--------------------------------------------------------------------
|--------------------------------------------------------------------
|--------------------------------------------------------------------
|--------------------------------------------------------------------

|-9-9-8-8-7-6\--12-12-11-11-10-10-9-9-8-8-7-7-6-6-5-5-4-4-3-3-2-2-1-1
|-9-9-8-8-7-6\--12-12-11-11-10-10-9-9-8-8-7-7-6-6-5-5-4-4-3-3-2-2-1-1
|--------------------------------------------------------------------
|--------------------------------------------------------------------
|--------------------------------------------------------------------
|--------------------------------------------------------------------

|-------0------------------------------------------------------------
|-------0------------------------------------------------------------
|-------1------------------------------------------------------------
|-------2------------------------------------------------------------
|-------2------------------------------------------------------------
|-0-0-0-0------------------------------------------------------------
Comments