Man Or Astro Man - Escape Velocity Chords & Tabs

 

Escape Velocity Chords & Tabs

Man Or Astro Man Chords & Tabs

Version: 2 Type: Tab 0 ratings
1 star 2 stars 3 stars 4 stars 5 stars
comments

Escape Velocity Tab

#----------------------------------PLEASE NOTE---------------------------------#
#This file is the author's own work and represents their interpretation of the #
#song. You may only use this file for private study, scholarship, or research. #
#------------------------------------------------------------------------------##
#

Tabbed by Brian (Ansigod) McCall 

ESCAPE VELOCITY - by Man...or Astro-man?
====== ========   available on Project Infinity

"Diameter: 4.9 miles, Mass: over six thousand megatons and speed
 of seventeen hundred and fifty miles per second."

"...And destination: Earth."

*1

G1

|---------------------------------------------------------------------|
|---------------------------------------------------------------------|
|-1-1-2--2-2-1-1-2--2-2-111-1-2--2-2----5---5---5---------------------|
|-0-0-0--0-0-0-0-0--0-0-000-0-0--0-0-/6---6---6---6\------------------|
|---------------------------------------------------------------------|
|---------------------------------------------------------------------|
                                                    ^repeat 2x
*2

G1

|---------------------------------------------------------------------|
|------------------------------5--5--5-5-5-5--8-8-8-8-8-8-8-8---------|
|------------------0-----------6--6--6-6-6-6--9-9-9-9-9-9-9-9---------|
|-0----------0-2-3----3-2hb-0--7--7--7-7-7-7--1010101010101010--------|
|------10\---------------------7--7--7-7-7-7--1010101010101010--------|
|---------------------------------------------------------------------|
                                                              ^repeat 2x
*3

G1

|-10101010-----------10101010-----------10101010-----------------------------|
|-10101010-----------10101010-----------10101010--------------11----11----11-|
|-1010101010/13-13-X-1010101010/13-13-X-1010101010/13-13-X-12----12----12----|
|----------------------------------------------------------------------------|
|----------------------------------------------------------------------------|
|----------------------------------------------------------------------------|

|-10101010-----------10101010-----------10101010----------------------|
|-10101010-----------10101010-----------10101010----------------------|
|-1010101010/13-13-X-1010101010/13-13-X-1010101010/13-13-X------------|
|---------------------------------------------------------------------|
|---------------------------------------------------------------------|
|---------------------------------------------------------------------|
[ Tab from: http://www.guitartabs.cc/tabs/m/man_or_astro_man/escape_velocity_tab_ver_2.html ]
|---------------------------------------------------------------------|
|---------------------------------------------------------------------|
|---------------------------------------------------------------------|
|-5-5-5-5--5--3-3-3-3--3----------------------------------------------|
|-5-5-5-5--5--3-3-3-3--3----------------------------------------------|
|-3-3-3-3--3--1-1-1-1--1----------------------------------------------|

*4

G1

|---------------------------------------------------------------------|
|---------------------------------------------------------------------|
|---------------------------------------------------------------------|
|---------------------------------------------------------------------|
|---------------------------------------------------------------------|
|-000--0--0--0-0-0-/3-3-3-3-3-3...-0--0--0--0-0-0-/6-6-6-6-6-6....----|

|---------------------------------------------------------------------|
|---------------------------------------------------------------------|
|---------------------------------------------------------------------|
|---------------------------------------------------------------------|
|---------------------------------------------------------------------|
|-0--0--0--0-0-0-/8-8-8-8-8-8...-0--0--0--0-0-0-/10-10-10-10-10-10...-|

Repeat *1-*4

*5

G1

|---------------------------------------------------------------------|
|---------------------------------------------------------------------|
|---------------------------------------------------------------------|
|--------------------2-2-1-1-0-0--------------------------------------|
|-2-2----------------------------2-2----------------2-2-3-3-2-2-3-3---|
|-----0---0-0--0-0-0-----------------1---1-1--1-1-1-------------------|

|---------------------------------------------------------------------|
|---------------------------------------------------------------------|
|---------------------------------------------------------------------|
|---------------------------------------------------------------------|
|---------------------------------------------------------------------|
|-3---3-3--3-3-3-6--6-8--8-8-8-0-0-0-0-0-0-0-0-0-0-0-0-0-0-0-0--------|

|---------------------------------------------------------------------|
|---------------------------------------------------------------------|
|---------------------------------------------------------------------|
|--------------------2-2-1-1-0-0--------------------------------------|
|-2-2----------------------------2-2----------------2-2-3-3-2-2-3-3---|
|-----0---0-0--0-0-0-----------------1---1-1--1-1-1-------------------|

|------------------------------0-0-0-0-0-0-0-0-0-0-0-0-0-0-0-0-0------|
|------------------------------0-0-0-0-0-0-0-0-0-0-0-0-0-0-0-0-0------|
|------------------------------1-1-1-1-1-1-1-1-1-1-1-1-1-1-1-1-1------|
|------------------------------2-2-2-2-2-2-2-2-2-2-2-2-2-2-2-2-2------|
|------------------------------2-2-2-2-2-2-2-2-2-2-2-2-2-2-2-2-2------|
|-3---3-3--3-3-3-6--6-8--8-8-8-0-0-0-0-0-0-0-0-0-0-0-0-0-0-0-0-0------|
Comments