Man Or Astro Man - Big Trak Attack Chords & Tabs

 

Big Trak Attack Chords & Tabs

Man Or Astro Man Chords & Tabs

Version: 2 Type: Tab 0 ratings
1 star 2 stars 3 stars 4 stars 5 stars
comments

Big Trak Attack Tab

   
#----------------------------------PLEASE NOTE---------------------------------#
#This file is the author's own work and represents their interpretation of the #
#song. You may only use this file for private study, scholarship, or research. #
#------------------------------------------------------------------------------##
#

Tabbed by Brian (Ansigod) McCall  6-23-96

BIG TRAK ATTACK - by Man...or Astro-Man? from the album
=== ==== ======   Experiment Zero

*1

G1                                       ~~~~
|-------------------------------------|------------------------------|
|-------------------------------------|------------------------------|
|-------------------------------------|-2----------------------------|
|-------------------------------------|-2----------------------------|
|-------------------------------------|-0----------------------------|
|-5--5-5-4--4-4-3--/12\--1-2-3-4--3-2-|------------------------------|

G2                                       ~~~~
|-------------------------------------|------------------------------|
|-------------------------------------|------------------------------|
|-------------------------------------|-2----------------------------|
|-9--9-9-8--8-8-7---------------------|-2----------------------------|
|-7--7-7-6--6-6-5---------------------|-0----------------------------|
|-------------------------------------|------------------------------|

*2

|--------------------------------------------------------------------|
|--------------------------------------------------------------------|
|--------------------------------------------------------------------|
|---------1h2-1---1-1-1-----------------1h2-1---1-1-1----------------|
|-0-0-3-0-------2-------2--2-3-2-0--3-0-------2-------2--2-3-2-------|
|--------------------------------------------------------------------|

|--------------------------------------------------------------------|
|--------------------------------------------------------------------|
|--------------------------------------------------------------------|
|--------1h2-1---1-1-1-----------------1h2-1---1-1-1-----------------|
|-0--3-0-------2-------2--2-3-2-0--3-0-------2-------2--2-3-2--------|
|--------------------------------------------------------------------|
[ Tab from: http://www.guitartabs.cc/tabs/m/man_or_astro_man/big_trak_attack_tab_ver_2.html ]
|--------------------------------------------------------------------|
|--------------------------------------------------------------------|
|--------1h2-1---1---1-1/3-3-3\--------1h2-1---1-1-1-----------------|
|-0--3-0-------2-0h3-3-3/5-5-5\-0--3-0-------2-------2--2-3-2--------|
|--------------------------------------------------------------------|
|--------------------------------------------------------------------|

|------------------------------------------------------------------------|
|------------------------------------------------------------------------|
|------------------------------------------------------------------------|
|--------1h2-1---1-1-1-----------------1h2-1---1-1-1---------------------|
|-0--3-0-------2-------2--2-3-2-0--3-0-------2-------2--2-3-2------------|
|-------------------------------------------------------------0-0-0-0-0--|..

Repeat *1

Repeat first half of *2
                                                                   ~~
|--------------------------|-----------------------------------------|
|--------------------------|-----------------------------------------|
|-9-9--9-9--9-9--9-9--9-10-|-9-9--9-9--9-9--9-9--9-10--9----------2--|
|-9-9--9-9--9-9--9-9--9-10-|-9-9--9-9--9-9--9-9--9-10--9----------2--|
|-7-7--7-7--7-7--7-7--7-8--|-7-7--7-7--7-7--7-7--7-8---7----------0--|
|--------------------------|-----------------------------------------|
                                                         ^sample^

Repeat second half of *2

End Riff

G1
|--------------------------------------------------------------------|
|--------------------------------------------------------------------|
|--------------------------------------------------------------------|
|--------------------------------------------------------------------|
|--------------------------------------------------------------------|
|-5--5-5-4--4-4-3--/12\--1-2-3-4--3-2--0-----------------------------|

G2
|--------------------------------------------------------------------|
|--------------------------------------------------------------------|
|--------------------------------------------------------------------|
|-9--9-9-8--8-8-7----------------------------------------------------|
|-7--7-7-6--6-6-5----------------------------------------------------|
|--------------------------------------------------------------------|
Comments