Malmsteen Yngwie - Evil Eye (g3 Version) Chords & Tabs

 

Evil Eye (g3 Version) Chords & Tabs

Malmsteen Yngwie Chords & Tabs

Version: 1 Type: Tab 0 ratings
1 star 2 stars 3 stars 4 stars 5 stars
comments

Evil Eye (g3 Version) Tab

   
			Yngwie Malmsteen -Evil Eye (G3 version)

Gtr I (D# G# C# F# A# D#) - 'lead guitar'
Gtr II (D# G# C# F# A# D#) - 'keyboard'
Gtr III (D# G# C# F# A# D#) - 'Untitled'
Gtr IV (D# G# C# F# A# D#) - 'Untitled'

 G3 version intro
  Q=120                                       Q=110
 4/4
  Gtr I
                                       ~~~~~~~
   S  T  T  T  T  T  S  T  T  T  T  T  E.  E.  S  S.  T
|----------------12-17-12-------------------------------|
|-------------13----------13----------------------------|
|----------14----------------14-------------------------|
|-------14----------------------14----------------------|
|-12-15----------------------------15-12--12--12s15--14-|
|-------------------------------------------------------|


   T  T  T  T  T  T  T  T  T  T  T  T  T  T  T  T  T  T  T  T  T  T  T  T  T  T  T  T  T  T  T  T
|-------------------13-15-13-12-13-15-13-12-13-15-17-13-15-17-19-15-17-19-20-17-19-20-17-19-20-19-|
|----------------13-------------------------------------------------------------------------------|
|-------------15----------------------------------------------------------------------------------|
|----12-13-14-------------------------------------------------------------------------------------|
|-15----------------------------------------------------------------------------------------------|
|-------------------------------------------------------------------------------------------------|


   T  T  T  T  T  T  T  T  T  T  T  T  S  T  T  T  S  T  T  T  S  T  T  T  S  T  T  T
|-17-20-19-17-20-17-20-17-------------------------19----------17----------15----------|
|-------------------------18-22-21-18----17----------20----------18----------17-------|
|-------------------------------------19----19-17-------21----------19----------19----|
|----------------------------------------------------------22----------21----------20-|
|-------------------------------------------------------------------------------------|
|-------------------------------------------------------------------------------------|


                  ~~
   S  S  S  T  S  E  S  T  T  S  T  T  S T T  S S T S
|----12-13-10----12----------13-10---------7-10-7-----|
|-13----------12----------12-------12----9--------9---|
|----------------------13-------------10------------7-|
|-------------------15--------------------------------|
|-----------------------------------------------------|
|-----------------------------------------------------|


  Q=100
  T T T T T T T T T T T T T T T T T T T T T T T T T T T T T T T T
|---4-5-0-5-0-0-7-0-0-5-0-0-7-0-0-4-0-0-7-0-0-4-0-0-7-0-0-5-0-0-8-|
|-6---------------------------------------------------------------|
|-----------------------------------------------------------------|
|-----------------------------------------------------------------|
|-----------------------------------------------------------------|
|-----------------------------------------------------------------|


                                                      Q=120
  T T T T T T T T T T T T T T S T T T T T T T T T T T X X X T +X  X X T
|-0-0-5-0-0-7-0-0-4-0-0-7-0-0-4-0-7-0-7-0-7-0-7-0-5-7-4-5-4-1-(1)-4-1-0--|
|------------------------------------------------------------------------|
|------------------------------------------------------------------------|
|------------------------------------------------------------------------|
|------------------------------------------------------------------------|
|------------------------------------------------------------------------|


                              /0.5\                                  \5_______
  X X +X  +X  T T T S T T T T S     T T T T S T S T T T S T +T  +T  +T   +T
|-4-4-(4)-(4)-------4-1-0----------------------------------------------------|
|-------------6-5-3-------3-1-0----------------------------------------------|
|-----------------------------------1-2-1------------------------------------|
|-----------------------------------------2-0-0-2----------------------------|
|-------------------------------------------------2-3-0-2--------------------|
|---------------------------------------------------------0-(0)-(0)-(0)--(0)-|


                 Q=124
            /0______________________________________
                                            ~~~~~~~
  T +T  +T  Q    Q    E  T  T T  T T  T  T  T  +T
|----------------------------------9-12-16-17-(17)-|
|-------------------------------10-----------------|
|-----------------------------9--------------------|
|--------------------------11----------------------|
|-----------------------12-------------------------|
|-0-(0)-(0)-0----0/--12----------------------------|


    ~~~~    ~~~    ~~~    ~~~~~~~~~~~
   +Q    S  E.  S  E.  S  E.    +E.  H.      S
|-(17)--16-17--16-17--16-17--|-(17)\-----------|
|----------------------------|-----------------|
|----------------------------|-----------------|
|----------------------------|-----------------|
|----------------------------|-----------------|
|----------------------------|-----------------|


  W          H    Q  E  E    H    Q  Q
|----------|---------------|------------|
|----------|---------------|------------|
|----------|---------------|------------|
|----------|---------------|---------2--|
|----------|---------7s16\-|---------2--|
|----------|---------5s14\-|---------0--|


                <
  +H     +E   E Q    +H     +Q   +E  +E
|---------------0--|-(0)-----------------|
|---------------0--|-(0)-----------------|
|---------------0--|-(0)----(0)----------|
|-(2)-----------0--|-(0)----(0)----------|
|-(2)-----------0--|-(0)----(0)----------|
|-(0)----(0)s19-0--|-(0)----(0)--(0)-(0)-|


                      ~~~
  +S  +S  +E  S s. S. E.  +E      +E     S
|------------------------------------------|
|------------------------------------------|
|------------------------------------------|
|----------------------------------------2-|
|----------------------------------------2-|
|-(0)-(0)-(0)-0s7--7s15--(15)b19r(15)b19r0-|


                      Q=97
                                                           ~~
  +W           +H     S S S S S S S S   +E  +Q   +H     S  S
|------------|------------------------|-----------------0s12--|
|------------|------------------------|-----------------------|
|------------|------------------------|-----------------------|
|------------|----------------------2-|-----------------------|
|------------|--------3-3-3-3-3-3-3-2-|-----------------------|
|-(0)--------|-(0)----1-1-1-1-1-1-1-0-|-(0)-(0)--(0)----------|


  Q=115
    ~~~~
   +S   T  T  T T  T  T  T T  T  T T T  T T T T  T T T  T T  T T  T T  T  T  T T  T
|-(12)------------13-12-10-8-12-10-8-7-10-8-7-5-10-7---------------------------------|
|------13-12-10-9------------------------------------9-12-9--------------------------|
|--------------------------------------------------------------9-10-9-------10-9-----|
|-----------------------------------------------------------12--------12-10------12--|
|------------------------------------------------------------------------------------|
|------------------------------------------------------------------------------------|


   T T  T  T T  T  T  T  T  T  T  S  T  T  S  T  T  T  S E S  E
|---------------------------------------------------------------|
|---------------------------------------------------------------|
|----9----------------------------------------------------------|
|-10---12-10-9-12----------15-14-12-----------------------------|
|-----------------14-12-14----------15-14-12-14-15-14------2s11-|
|-----------------------------------------------------12s4------|


  Q=90       Q=120
  W          E  S Q  E  S Q  E    S Q  E  S Q  E  S S   +W
|----------|-------------------|----------------------|--------|
|----------|-------------------|----------------------|--------|
|----------|-------------------|----------------------|--------|
|-2--------|-2s17-2--2s17-2--2s|=17-2--2s17-2--2s17-2-|-(2)----|
|-2--------|-2s17-2--2s17-2--2s|=17-2--2s17-2--2s17-2-|-(2)----|
|-0--------|-0s15-0--0s15-0--0s|=15-0--0s15-0--0s15-0-|-(0)----|


  S  E E H    S S S
|----------------------|
|----------------------|
|----------------------|
|----------------------|
|----------------------|
|-3s15s3---------------|


       Q=125
            ~~~~~          ~~~~~~
  S Q  E E  Q  E +S    +S  Q   Q  E T  T T E  S  +T
|--------------------|-------------------------------|
|--------------------|-------------------------------|
|------9-7-----------|-----7--10--9-9-10-9-7---------|
|----------10--7-(7)-|-(7)-------------------10-(10)-|
|--------------------|-------------------------------|
|--------------------|-------------------------------|


       ~       ~~
   +T  Q  E E  Q  E S +T    +T  T T T T T T T T E E E E E S +T
|-------------------------|--------------------------------------|
|-------------------------|--------------------------------------|
|---------9-7-------------|--------------------------------------|
|-(10)-9------10--9-7-(7)-|-(7)-6-7-6-7-6-7-6-7-6-7-7------------|
|-------------------------|---------------------------0-0-0-(0)--|
|-------------------------|--------------------------------------|


               ~~~~~~~~~~~~~          ~~~~~~                 ~       ~~~~~~~
  +T  E E E E  Q  E +T  +T  +T    +T  Q   Q  E T  T T E  E   Q  E E  Q  E E
|-------------------------------|--------------------------|----------------|
|-------------------------------|--------------------------|----------------|
|---------9-7-------------------|-----7--10--9-9-10-9-7----|----9-7---------|
|-------------10--7-(7)-(7)-(7)-|-(7)-------------------10-|-9------10--9-7-|
|-(0)-0-0-----------------------|--------------------------|----------------|
|-------------------------------|--------------------------|----------------|


                      Q=130
  ~                         ~~      ~~~~~~~~~    ~       ~
  Q  +E  E Q  E E   E  E E  Q  E E  E    +E  E E Q   E E E
|-----------------|-------------------|--------------------|
|-----------------|-------------------|--------------------|
|-----------------|------------7-9-10-|-(10)-----------7-9-|
|-6--(6)----------|---10-9-10---------|------9-7-9--10-----|
|--------0-0--0-0-|-0-----------------|--------------------|
|-----------------|-------------------|--------------------|


   ~~~    ~          ~~~~~~~~~~~~~~~~                              ~~~~~~~
  +E  E E Q  E T T T E +T    +E  +E  +E   T  T  T  S  S  S.  S  S  E  +S
|--------------------------|-------------12-15-12-------12--15-12-17-(17)-|
|--------------------------|----------------------13----------------------|
|-(9)--------7-5-7-5-4-(4)-|-(4)-(4)-(4)-------------12-------------------|
|-----7-6-7----------------|----------------------------------------------|
|--------------------------|----------------------------------------------|
|--------------------------|----------------------------------------------|


    ~~~~     ~~      ~~~~~~~~~~~~~~    ~       ~~~~~~~
   +S   E E  Q  E E  E  +S     +S  E E Q   E E E +S
|-(17)----------------------|------------------------|
|---------------------------|------------------------|
|---------------7-9-10-(10)-|-(10)-----------7-9-(9)-|
|------10-9-10--------------|------9-7-9--10---------|
|---------------------------|------------------------|
|---------------------------|------------------------|


 ~~~~~    ~
  +S  E E S  S  T  T  S  S  T  T  S  S S  S S
|-----------12-13-12-10------------------------|
|-----------------------13-12-10---------------|
|-(9)----------------------------13-10-9-13----|
|-----7-6-7---------------------------------9--|
|----------------------------------------------|
|----------------------------------------------|


                          \1/
   S  S   H       +E     +E     +E
|------------------------------------|
|------------------------------------|
|------------------------------------|
|-14---------------------------------|
|----11---0-------(0)----(0)----(0)--|
|-----------()-()-()-|


                                               Q=115
     \1/
    +S     +H        +Q      +E     +S       S S E S S S S S S S S S S S S
|----------------------------------------||--------------------------------|
|----------------------------------------||o-------------------------------|
|----------------------------------------||--------------------------------|
|----------------------------------------||------7-6-----------------------|
|---(0)----(0)-------(0)-----(0)----(0)--||o---7-----7---6-8-6-7-3-2-------|
|-()-()----()--()-()-||--0---------7-------------2-1-0-|


  +S  S S S S S E Q  Q      S S E S S S S S S S S S S S S
|------------------------||--------------------------------|
|-----------------------o||--------------------------------|
|------------------------||--------------------------------|
|-------7---6------------||-----7-6------------------------|
|-----7---7---7-2-------o||---7-----7---6-8-6-7-3-2--------|
|-(0)-----------0--------||-0---------7-------------2-1-0--|


                    ~~~~~~
  +S  S S S S S E   Q   S E S   S S E S S S S S S S S S S S S
|-----------------/22S=12-----|-------------------------------|
|-----------------------------|-------------------------------|
|-----------------------------|-------------------------------|
|-------7---6-------------7s0-|-----7-6-----------------------|
|-----7---7---7-2---------7s0-|---7-----7---6-8-6-7-3-2-------|
|-(0)-----------0---------7s0-|-0---------7-------------2-1-0-|


                                                          ~
  +S  S S S S S E Q  Q      S S S S S S  S S S S S S  S S E
|-----------------------||-----------------------------------|
|-----------------------||o----------------------------------|
|-----------------------||------5-7-9---10---9---7-----------|
|-------7---6-----------||----7-------7----7---7---7-10-7-9--|
|-----7---7---7-2-------||o-0--------------------------------|
|-(0)-----------0-------||-----------------------------------|


  S S S S S S  S S S S S S  S S  S S     S S S S S S S S S S S S S S S S
|-------------------------------------||---------------------------------|
|------------------------------------o||---------------------------------|
|-----5-7-9---10---9---9-7----7-------||---------------------------------|
|-2-0-------7----7---7-----10---10-9--||---2-5-3-2-----------8-7-5-------|
|------------------------------------o||-3---------5-3-2-4-7-------8-7-4-|
|-------------------------------------||---------------------------------|


  S S S S S S S S S S  S S S  S S S   E S S S S S S S S S S S S S S
|-----------------------------------|-------------------------------|
|-----------------------------------|-------------------------------|
|-----------------------------------|-------------------------------|
|-----7-5-------------10-9-7--------|-------------------------------|
|-5-8-----8-7-5---6-9--------10-9-7-|-------------------------------|
|---------------8-------------------|-0-0-1-0-1-0-1-0-1-0-1-0-1-0-1-|


                                    Q=105
  S S S S S S S S S S S S S S S S   E E E E E E E E   E E E E E E E E
|---------------------------------|-----------------|------------------|
|---------------------------------|-----------------|------------------|
|---------------------------------|-----------------|------------------|
|---------------------------------|-7-------7-7-7-7-|-7-------7-7------|
|-----------------7-8-5-7---5-----|-7-------7-7-7-7-|-7-------7-7------|
|-0-1-0-1-0-1-0-1---------8---7-8-|-5-------6-6-6-5-|-5-------5-5------|


                                      Q=210
  E E E E E E E E   E E E E E E E E   S S S S S S S S S  S S S S S S S
|-----------------|-----------------|-5-8-7-5-4-7-5-4-7-10-8-7-5-8-7-5--|
|-----------------|-----------------|-----------------------------------|
|-----------------|-----------------|-----------------------------------|
|---7-7-7-7-7-7-7-|-7-7-------------|-----------------------------------|
|---7-7-7-7-7-7-7-|-7-7-------------|-----------------------------------|
|---6-6-6-5-5-5-5-|-5-5-------------|-----------------------------------|


  S  S  S S S  S S S S S S T T S S S T T   S S S S S S S S S  S S S S S S S
|-8-12-10-8-7-10-8-7-5-8-7-5-8-4-7-5-4-7-|-5-8-7-5-4-5-7-4-7-10-8-7-5-8-7-5-|
|----------------------------------------|----------------------------------|
|----------------------------------------|----------------------------------|
|----------------------------------------|----------------------------------|
|----------------------------------------|----------------------------------|
|----------------------------------------|----------------------------------|


                                     ~         ~~~~~~~~~~~~~~~~~~~~~~~
  S  S  S S S  S S S S S S S T T T T E   E  S  Q   +E   +S   +E   +E   S  S
|-8-12-10-8-7-10-8-7-5-8-7-5-8-7-5-4-5-|---17s24--(24)-(24)-(24)-(24)-17-20-|
|--------------------------------------|------------------------------------|
|--------------------------------------|------------------------------------|
|--------------------------------------|------------------------------------|
|--------------------------------------|------------------------------------|
|--------------------------------------|------------------------------------|


                                                          Q=120
                                                              ~~~~~~
   S  S  S  S  S  S  S  S  S  S  S  S  S  T  T  S  T  T   Q   E  Q.   S  S  E
|-19-17-16----------------------------------------------|----10s12-------------|
|----------18-17-15-------------------------------------|----------------------|
|-------------------17-16-14-13-------------------------|---------------17s19s=|
|-------------------------------15-14-12----------------|-2-----------0--------|
|----------------------------------------15s14-12-11----|----------------------|
|----------------------------------------------------13-|----------------------|


   S  S  T  T  T  T  T  T  T  T  T  T  T  T  T  T  T  T  T  T  T  T  T  T  T  T  T  T  T  T
|-------------------------------------------------------------------------------------------|
|-------------------------17-18-17----17-------17-------------------------------18-17----17-|
|-16-19-17-16----16-17-19----------19----19-17----19-17-16-19-17-16----16-17-19-------19----|
|-------------19----------------------------------------------------19----------------------|
|-------------------------------------------------------------------------------------------|
|-------------------------------------------------------------------------------------------|


                                       ~~                   ~~~
   T  T  T  T  T  T  T  T  T  T  T  E  Q   T  T  T  S  +S   S
|----------------------------------12s24-----------12-(12)s24-|
|-------18----------17-18-----------------18------------------|
|-16-19----19-16----------19-16--------------19-16------------|
|----------------19-------------19----------------------------|
|-------------------------------------------------------------|
|-------------------------------------------------------------|


 ~~~~~~~~~~~~~~~~~~~
   +H      +E   +S   +T   S  T  T  T  T  T  T  T
|-(24)----(24)-(24)-(24)-19-16----16-13----16-13--|
|------------------------------17-------15--------|
|-------------------------------------------------|
|-------------------------------------------------|
|-------------------------------------------------|
|-------------------------------------------------|


   T  S  S  T  T  T  T  T  T T  T  T  T T  T  T T  T T  T T  S T  T  T S  T  T
|----------13-12-10------------------------------------------------------------|
|-15-12-15----------13-12-10-9-10-12-10-9--------------------------------------|
|-----------------------------------------12-10-9----9-10-9----9---------------|
|-------------------------------------------------12--------12---12-10-9----10-|
|------------------------------------------------------------------------12----|
|------------------------------------------------------------------------------|


                                                                  Q=110
                                                       \3.5
                          ~~~~~                                       ~~
  T  T T  T  T T  T  T S  E  Q   E E S   +T  +T  +T    E     Q  E  S  Q   S  T
|--------------------------------------|-------------(26)---26-----------------|
|--------------------------------------|-------------(26)---26----12s15--15-13-|
|--------------------------------------|-------------(26)---26-----------------|
|-9-12-9-12-10-9-------9---------------|---------------------------------------|
|----------------12-12---11------------|---------------------------------------|
|---------------------------12--10s0-4-|-(4)-(4)-(4)s==7-----------------------|


   T  T  T  T  T  T  T  T  T  T  T  T  T  T  T  T  T  T  T  T  T  T  T  T  T  S E T
|-------13-12-----------------------------------------------------------------------|
|-12----------15-13-12--------------------------------------------------------------|
|----14----------------14-13-------16-14-13-----------------------------------------|
|----------------------------16-15----------15-14-12-15-14-12-----------------------|
|-------------------------------------------------------------14-13-12-11-----------|
|-------------------------------------------------------------------------12-12-0---|


  Q  Q  E  Q  E    Q  +Q   +E  +T   T  T  T  T  T  T  T  T  T  T  T
|---------------|-^5--(5)--(5)-(5)----------------------------------|
|---------------|-^3--(3)--(3)-(3)----------------------------------|
|---------------|-^2--(2)--(2)-(2)----------------------10-12-14-15-|
|---------10s=3-|-^0--(0)--(0)-(0)-------------10-12-14-------------|
|---------10s=3-|---------------------10-12-13----------------------|
|---------10s=3-|------------------13-------------------------------|


      ~~~~~~
   S  E.  Q   S  E  +S   S E +S
|--------------------------------|
|--------------------------------|
|-14s15--14--15-12-(12)-12-9-(9)-|
|--------------------------------|
|--------------------------------|
|--------------------------------|


                ~~~~~~~~~~
  T  T T  S  S  Q.    +T   S  T  T  T  T  T  T  T  T  T  T
|-------------------------------------------------13-15-17--|
|----------------------------------------13-15-17-----------|
|-9-10-9------------------------12-14-15--------------------|
|--------12-11-12----(12)-14-15-----------------------------|
|-----------------------------------------------------------|
|-----------------------------------------------------------|


   ~~~~~~
   Q   Q   T  T  S  S  S  S  S  S  S
|-18--17--15-17-18-15-18----18-------|
|------------------------18----17-15-|
|------------------------------------|
|------------------------------------|
|------------------------------------|
|------------------------------------|


   T  T  T  S  E  S  S  S  S  S  S  S  T  T  T  T  T  T  T  T  T
|----------------------------------------------------15----15-17-|
|-15-17-15-14-15-18-15-14-15-18-15-14-15-17-18-17-18----18-------|
|----------------------------------------------------------------|
|----------------------------------------------------------------|
|----------------------------------------------------------------|
|----------------------------------------------------------------|


   S  E  +T   S  S  S  S  S  T  T  T  T  T  T  T  T  T  T  T  T  T  T  T
|-17s18-(18)-17s18s17s18s17-15-17-15-17-15-17-15-17-15-17-15-17-15-17-15-|
|------------------------------------------------------------------------|
|------------------------------------------------------------------------|
|------------------------------------------------------------------------|
|------------------------------------------------------------------------|
|------------------------------------------------------------------------|


   T  T  S  T  T  S  T  T  T T +E   Q   +E   +T   T  T  T
|-13-15-13-12-13-12-10-12-10-9-(9)-10--(10)-(10)------------|
|-----------------------------------------------------------|
|------------------------------------------------12-14-15---|
|-----------------------------------------------------------|
|-----------------------------------------------------------|
|-----------------------------------------------------------|


      ~~~~~~~~~~~~~~
   S  E.  Q   Q   Q
|----------------------|
|----------------------|
|-14s15--14--12--14----|
|----------------------|
|----------------------|
|----------------------|

[ Tab from: http://www.guitartabs.cc/tabs/m/malmsteen_yngwie/evil_eye_g3_version_tab.html ]
  Q=120
  E S S S S S S S S S S S  S  S  S
|----------------------------------|
|----------------------------------|
|-7-7-x-x-7-x-7-x-x-7-x-x--7--x--7-|
|-7-7-x-x-7-x-7-x-x-7-x-x--7--x--7-|
|-5-x-5-5-x-5-x-5-5-x-5-5--5--5--5-|
|----------------------------------|
|
|                         Gtr II
| H             Q       S  S  S  S
|----------------------------------|
|----------------------------------|
|-------------------------------14-|
|-------------------------12-15----|
|----------------------------------|
|----------------------------------|


  Q=120
   ~~~
   Q         Q                    Q                  Q
|----------------------------------------------------------------------------|
|----------------------------------------------------------------------------|
|----------------------------------------------------------------------------|
|--8---------7--------------------5------------------2-----------------------|
|----------------------------------------------------------------------------|
|----------------------------------------------------------------------------|
|
|  S  E  +E     T  T  T  T  T  T  T T T  T T T  T  T T T  T  T  T  T  T  T
|----------------------------------------------------------------------------|
|-------------------------------------8-11-8-----------8-11-14---------------|
|-12s14-(14)---12-------------------9--------9-------9---------15-12---------|
|-----------------15-14-12-11----11------------12-11-----------------14-17---|
|-----------------------------12---------------------------------------------|
|----------------------------------------------------------------------------|


   E           S     S    S    S S S S      S     S     S  S S S S
|------------------------------------------------------------------|
|------------------------------------------------------------------|
|--------------7---------------7---7--------------7----------7---7-|
|--0-----------7-----0----0----7-0-7-0------0-----7-----0--0-7-0-7-|
|------------------------------------------------------------------|
|------------------------------------------------------------------|
|
|                                                    ~~~~~~~~~~~~~~~
|  T  T  T  T  T  T  T  S    Q          +S     T  T  T  S  Q
|------------------------------------------------------------------|
|----14-15-17-18-17-18-18s==20---------(20)---18-17-17s18-15-------|
|-15---------------------------------------------------------------|
|------------------------------------------------------------------|
|------------------------------------------------------------------|
|------------------------------------------------------------------|


    ~~~~
    Q            Q                       Q                       Q
|----------------------------------------------------------------------------------------|
|----------------------------------------------------------------------------------------|
|----------------------------------------------------------------------------------------|
|---8------------7-----------------------5-----------------------2-----------------------|
|----------------------------------------------------------------------------------------|
|----------------------------------------------------------------------------------------|
|
|~~~~~~
|  +S   S  S  S  T  T  T  T  T  T  T  T  T  T  T  T  T  T  T  T  T  T  T  T  T  T  T  T
|----------------------------------------------------------------------------------------|
|-(15)-18-20-18-20-18-20-------------------13-15-13--------------------------------------|
|------------------------14s15s14s15s14s15----------15-14-12-----------------------------|
|------------------------------------------------------------15-14-12--------------------|
|---------------------------------------------------------------------15-13-12-----------|
|------------------------------------------------------------------------------15-13-12--|


   T  T  T  T  T  T  T  T  T  X  X  T  T  T  T  T  T  T  T  T  T  T  T  T  T  T  T T  T  T  T  T  T
|-17-15-13-15-13-------------15-13----------------13-15-17-15-13-15-13-12-13-12-10-9-10-13-10-13-17-|
|----------------17-15-15-14-------17-15-14-15-17---------------------------------------------------|
|---------------------------------------------------------------------------------------------------|
|---------------------------------------------------------------------------------------------------|
|---------------------------------------------------------------------------------------------------|
|---------------------------------------------------------------------------------------------------|
|
|  W
|---------------------------------------------------------------------------------------------------|
|---------------------------------------------------------------------------------------------------|
|---------------------------------------------------------------------------------------------------|
|---------------------------------------------------------------------------------------------------|
|---------------------------------------------------------------------------------------------------|
|---------------------------------------------------------------------------------------------------|


   T  T  T  T  T  T  T  T  T  T  T  T  T  T  T  T  T  T  T  T  T  T  S  T  T  T  T  T  T  T  T
|-18-17-15-------15-15-13-13-15----------15-18-19-16-18-14-13-13-14-14-15-18-14-16-19-16-18s23--|
|----------18-19----------------15-15-17--------------------------------------------------------|
|-----------------------------------------------------------------------------------------------|
|-----------------------------------------------------------------------------------------------|
|-----------------------------------------------------------------------------------------------|
|-----------------------------------------------------------------------------------------------|
|
|  W
|-----------------------------------------------------------------------------------------------|
|-----------------------------------------------------------------------------------------------|
|-----------------------------------------------------------------------------------------------|
|-----------------------------------------------------------------------------------------------|
|-----------------------------------------------------------------------------------------------|
|-----------------------------------------------------------------------------------------------|


  Q=115
   +S      H                                                     Q                       E           S
|-(23)-----------------------------------------------------------------------------------------------------|
|----------------------------------------------------------------------------------------------------------|
|----------------------------------------------------------------------------------------------------------|
|----------------------------------------------------------------------------------------------------------|
|----------------------------------------------------------------------------------------------------------|
|----------------------------------------------------------------------------------------------------------|
|
|   T   T  T  T  T  T  T  T  T  T  T  T  X  X  X  X  T  T  T  T  T  T  T  T  T  T  T  T  T  T  T  T  T  T
|------------------------------------------------------------------------------------------13-15-17-15-13--|
|---------------------------------------------------------------------------------------15-----------------|
|------10-14-12-10-------14-12-10-------14-12-10-------12-10-------------------------14--------------------|
|--12--------------14-12----------14-12----------12-14-------12-12----12-15----12-15-----------------------|
|------------------------------------------------------------------12-------12-----------------------------|
|----------------------------------------------------------------------------------------------------------|


   H                                 Q                       E           T  T  T  T
|---------------------------------------------------------------------------------x--|
|------------------------------------------------------------------------------x-----|
|---------------------------------------------------------------------------x--------|
|------------------------------------------------------------------------x-----------|
|------------------------------------------------------------------------------------|
|------------------------------------------------------------------------------------|
|
|  S  E.  T  T  T  T  T  T  T  X  X  T  T  T  T  T  T  T  T  T  T  T  T  T  T  T  T
|-15s17--15--------------------------------------------------------------------------|
|-----------18-17-15----------17s20-17-15--------------------------------------------|
|--------------------18-15-14-------------14-----------------------------------------|
|--------------------------------------------17-15-14----19-15-14--------------------|
|-----------------------------------------------------16----------17-16--------------|
|-----------------------------------------------------------------------18-17-15-13--|


   T  T  T  T  T  T  T  T  T  T  X  X  X  X  T  T  T  T  T  T  T  T  T  T  T  T  T  T  T  T  T  T T  T
|----18-17-15-13-17-15-13-12-15-13-12-10-12-13-15-17-18-17-15-13-17-15-13-12-15-13-12-10-13-12-10-9-10--|
|-------------------------------------------------------------------------------------------------------|
|-------------------------------------------------------------------------------------------------------|
|-------------------------------------------------------------------------------------------------------|
|-------------------------------------------------------------------------------------------------------|
|-------------------------------------------------------------------------------------------------------|
|
|  T  T  T  T  T  T  T  T  T  T  S           E           E           E           E           E
|-------------------------------------------------------------------------------------------------------|
|-------------------------------------------------------------------------------------------------------|
|-------------------------------------------------------------------------------------------------------|
|-------------------------------------------------------------------------------------------------------|
|-------------------------------------------------------------------------------------------------------|
|-15-13-15-13-15-13-15-13-15-13-------------------------------------------------------------------------|


  S  T T T  T  T  T T  T T  T  T T  T T T T  T  T  T  T T  T  T  T  T  T  T  T  S
|-9-10-9-6-------10-9---------10-9---------------------------------------------10s=|
|----------10---------10-8---------10-8-6---11-10----------------------------------|
|-------------10-----------10-------------9-------12-10-9----14-12-10--------------|
|---------------------------------------------------------12----------14-12-11-----|
|----------------------------------------------------------------------------------|
|----------------------------------------------------------------------------------|
|
| W
|----------------------------------------------------------------------------------|
|----------------------------------------------------------------------------------|
|----------------------------------------------------------------------------------|
|----------------------------------------------------------------------------------|
|----------------------------------------------------------------------------------|
|----------------------------------------------------------------------------------|


   ~~~~~~~~~~~
   E        Q                       H                                               E
|-21s======23-----------------------------------------------------------------------------------|
|-----------------------------------------------------------------------------------------------|
|-----------------------------------------------------------------------------------------------|
|-----------------------------------------------------------------------------------------------|
|-----------------------------------------------------------------------------------------------|
|-----------------------------------------------------------------------------------------------|
|
|  S  T  T  T  T  T  T  T  T  T  T  T  T  T  T  T  T  T  T  T  T  T  T  T  T  T  T  T  T  T  T
|-16-18-16-14-13-14-16-14-13-11-----------------------------------------------------------------|
|-------------------------------11-15-14-11----14-11-------11-----------------------------------|
|-------------------------------------------14-------14-12----14-12-10-14-12-10----12-10--------|
|-------------------------------------------------------------------------------14-------14-12--|
|-----------------------------------------------------------------------------------------------|
|-----------------------------------------------------------------------------------------------|


   H                 Q                       S     E           S
|------------------------------------------------------------------|
|------------------------------------------------------------------|
|------------------------------------------------------------------|
|------------------------------------------------------------------|
|------------------------------------------------------------------|
|-------------------------------------------12s===17s==========3---|
|
|        ~~~
|  E  T  E.  S  S  S    T  T  T  T  T  T  T  T  T  T  T  T  T  T T
|------------------------------------------------------------------|
|----13s15--13s15s13---15-13----13---------------------------------|
|----------------------------14----14------------------------------|
|-12----------------------------------15-14-15-12----12-15-12----0-|
|-------------------------------------------------12----------12---|
|------------------------------------------------------------------|


   T  T  T  T  T  T  T  T  T  T  T  T  T  T  T  T  T  T  T  T  T  T  T  T  T  T  T  T  T  T  T  T
|----------------------------------------------------------------------13-------13-15----13-15-17-|
|----------------------------------------------------------17-13-15-17----15-17-------17----------|
|-------------------------------15-17----15-17-19-15-17-19----------------------------------------|
|-14-15-17-19-15-17-19-20-17-19-------19----------------------------------------------------------|
|-------------------------------------------------------------------------------------------------|
|-------------------------------------------------------------------------------------------------|
|
|  W
|-------------------------------------------------------------------------------------------------|
|-------------------------------------------------------------------------------------------------|
|-------------------------------------------------------------------------------------------------|
|-------------------------------------------------------------------------------------------------|
|-------------------------------------------------------------------------------------------------|
|-------------------------------------------------------------------------------------------------|


                                 ~~
   T  T  T  T  T  T  S  S  S  E  H
|-13-15-17-18-15-17-18-20-17-20s23----|
|-------------------------------------|
|-------------------------------------|
|-------------------------------------|
|-------------------------------------|
|-------------------------------------|
|
|  W
|-------------------------------------|
|-------------------------------------|
|-------------------------------------|
|-------------------------------------|
|-------------------------------------|
|-------------------------------------|


   Q                       E           Q                       T  T  T  T  T  T  T  T  T  T  T  T
|-------------------------------------------------------------------------------------------15-17-|
|----------------------------------------------------------------------------------15-17-18-------|
|-------------------------------------------------------------------------14-15-17----------------|
|----------------------------------------------------------------14-15-17-------------------------|
|-------------------------------------------------------------------------------------------------|
|-------------------------------------------------------------------------------------------------|
|
|  T  T  T  T  T  T  T  T  T  T  T  T  T  T  T  T  T  T  T  T  T  T  T  T  T  T  T  T  T  T  T  T
|-------------------------------------------------------------------------------------------------|
|-------------------------------------------------------------------------------------------------|
|----------------------------------------------------------------------------------------10-12-14-|
|----------------------------------------------10-------10-12----10-12-14-10-12-14-12-14----------|
|----------10-------10-12----10-12-13-10-12-13----12-13-------13----------------------------------|
|-10-12-13----12-13-------13----------------------------------------------------------------------|


  Q=108
       ~~     ~~~~~~~~           ~~     ~~~~~~~~       ~~~~~~~~~~~~~~
   Q   Q   T  E.  +T   Q     Q   Q   T  E.  +T   Q     Q   Q   Q   Q
|-18--17--18-15--(15)-----|-18--17--18-15--(15)-----|-18--20--22--24--|
|---------------------17--|---------------------17--|-----------------|
|-------------------------|-------------------------|-----------------|
|-------------------------|-------------------------|-----------------|
|-------------------------|-------------------------|-----------------|
|-------------------------|-------------------------|-----------------|
|
|      ~~     ~~~~~~~~~~~        ~~     ~~~~~~~~~~~~~~~~~~~~~~~~~~~~~
|  Q   Q   T  E.  +T   Q     Q   Q   T  E.  +T   Q     Q   Q   Q   Q
|-------------------------|-------------------------|-----------------|
|-------------------------|-------------------------|-----------------|
|-15--14--15-12--(12)-----|-15--14--15-12--(12)-----|-15--17--19--21--|
|---------------------14--|---------------------14--|-----------------|
|-------------------------|-------------------------|-----------------|
|-------------------------|-------------------------|-----------------|


  Q=115
  S S E S S S S S S S S S S S S   +S  S S S S S E Q  Q
|-------------------------------|------------------------|
|-------------------------------|------------------------|
|-------------------------------|------------------------|
|-----7-6-----------------------|-------7---6------------|
|---7-----7---6-8-6-7-3-2-------|-----7---7---7-2--------|
|-0---------7-------------2-1-0-|-(0)-----------0--------|


                                                    ~~~~~~
  S S E S S S S S S S S S S S S   +S  S S S S S E   Q   S E S
|-------------------------------|-----------------/22S=12-----|
|-------------------------------|-----------------------------|
|-------------------------------|-----------------------------|
|-----7-6-----------------------|-------7---6-------------7s0-|
|---7-----7---6-8-6-7-3-2-------|-----7---7---7-2---------7s0-|
|-0---------7-------------2-1-0-|-(0)-----------0---------7s0-|


    S S E S S S S S S S S S S S S   +S  S S S S S E Q  Q
||--------------------------------|------------------------||
||o-------------------------------|-----------------------o||
||--------------------------------|------------------------||
||------7-6-----------------------|-------7---6------------||
||o---7-----7---6-8-6-7-3-2-------|-----7---7---7-2-------o||
||--0---------7-------------2-1-0-|-(0)-----------0--------||


                                  ~
    S S S S S S  S S S S S S  S S E   S S S S S S  S S S S S S  S S  S S
||----------------------------------|-------------------------------------||
||o---------------------------------|------------------------------------o||
||------5-7-9---10---9---7----------|-----5-7-9---10---9---9-7----7-------||
||----7-------7----7---7---7-10-7-9-|-2-0-------7----7---7-----10---10-9--||
||o-0-------------------------------|------------------------------------o||
||----------------------------------|-------------------------------------||


  S S S S S S S S S S S S S S S S   S S S S S S S S S S  S S S  S S S
|---------------------------------|-----------------------------------|
|---------------------------------|-----------------------------------|
|---------------------------------|-----------------------------------|
|---2-5-3-2-----------8-7-5-------|-----7-5-------------10-9-7--------|
|-3---------5-3-2-4-7-------8-7-4-|-5-8-----8-7-5---6-9--------10-9-6-|
|---------------------------------|---------------8-------------------|


  ~
  Q  S S S S S S S S S S S S
|----------------------------|
|----------------------------|
|----------------------------|
|----------------------------|
|-7--------------------------|
|----0-1-0-1-0-1-0-1-0-1-0-1-|


                  Q=110
  S S S S  S  E S  T  T  T  T  T  T  T  T  T  T  T  T  E
|--------------------------------------------------------|
|--------------------------------------------------------|
|-----------------------------------------------------14-|
|-----------------------------------15-14-12-15-14-12----|
|-----------------------11-12-14-15----------------------|
|-0-1-0-1-12s19s7-11-12----------------------------------|


                   Q=110
    ~~~~
   +H      E  E  S  T  T  T  T  T  T
|------------------------10-12-13-12-|
|------------------12-13-------------|
|-(14)----14s22s12-------------------|
|------------------------------------|
|------------------------------------|
|------------------------------------|


   T  T  T  T  T  T  T  T  T  T  T  T  T  T  T  T  T  T  E  E  T  T  T  T  T  T
|-10----------------10-12-13-12-10----------------------------------10-12-13-12--|
|----13-12-10-12-13----------------13-12-10-------------------12-13--------------|
|-------------------------------------------13-10----------10--------------------|
|----------------------------------------------------10--------------------------|
|-------------------------------------------------11-----------------------------|
|-------------------------------------------------------12-----------------------|


   T  T  T  T  T  T  T  T  T  T  T  T  T  T  T  T  T  T  E  E  T  T  T  T  T  T
|-10----------------10-12-13-12-10----------------------------------------------|
|----13-12-10-12-13----------------13-12-10-------------------------------------|
|-------------------------------------------13-10-------------------------13-14-|
|----------------------------------------------------10----------12-14-15-------|
|-------------------------------------------------11----------15----------------|
|-------------------------------------------------------12-13-------------------|


   T  T  T  T  T  T  T  T  T  T  T  T  T  T  T  T  T  T  E  E  T  T  T
|----------12-13-12----------------------------------------------------|
|-12-13-15----------15-13-12-------------------------------------------|
|----------------------------14-13-------------------------------------|
|----------------------------------15-14-12----------------------12-14-|
|-------------------------------------------15-14-12----------15-------|
|----------------------------------------------------15-12-13----------|


                                                                 Q=100
   T  T  T  T  T  T  T  T  T  T  T  T  T  T  T  T  T  T  T  T  T  E
|-------------------12-13-12----------------------------------------|
|----------12-13-15----------15-13-12-------------------------------|
|----13-14----------------------------14-13-------------------------|
|-15----------------------------------------15-14-12----------------|
|----------------------------------------------------15-14-12-------|
|-------------------------------------------------------------15-12-|


   Q   Q.
|------------|
|------------|
|------------|
|------------|
|------------|
|-13--12-----|


|-|
|-|
|-|
|-|
|-|
|-|


Duration Legend
---------------
W - whole; H - half; Q - quarter; E - 8th; S - 16th; T - 32nd; X - 64th; a - acciaccatura
+ - note tied to previous; . - note dotted; .. - note double dotted
Uncapitalized letters represent notes that are staccato (1/2 duration)
Irregular groupings are notated above the duration line
Duration letters will always appear directly above the note/fret number it represents the
duration for.  Duration letters with no fret number below them represent rests.  Multi-
bar rests are notated in the form Wxn, where n is the number of bars to rest for.  Low
melody durations appear below the staff

Tablature Legend
----------------
 h   - hammer-on
 p   - pull-off
 b   - bend
 pb  - pre-bend
 r   - bend release (if no number after the r, then release immediately)
 /\  - slide into or out of (from/to "nowhere")
 s   - legato slide
 S   - shift slide
  - natural harmonic
[n]  - artificial harmonic
n(n) - tapped harmonic
 ~   - vibrato
 tr  - trill
 T   - tap
 TP  - trem. picking
 PM  - palm muting
\n/  - tremolo bar dip; n = amount to dip
 \n  - tremolo bar down
 n/  - tremolo bar up
/n\  - tremolo bar inverted dip
 =   - hold bend; also acts as connecting device for hammers/pulls
   - volume swell (louder/softer)
 x   - on rhythm slash represents muted slash
 o   - on rhythm slash represents single note slash

Misc Legend
-----------
 |  - bar
||  - double bar
||o - repeat start
o|| - repeat end
*|  - double bar (ending)
 :  - bar (freetime)
 $  - Segno
 &  - Coda
Tempo markers -  = BPM(8/16=s8/s16), where s8 = swing 8ths, s16 = swing 16ths


***************************************************************************************
* Generated using Power Tab Editor by Brad Larsen - http://powertab.guitarnetwork.org *
***************************************************************************************
Comments