Malmsteen Yngwie - Baroque And Roll Chords & Tabs

 

Baroque And Roll Chords & Tabs

Malmsteen Yngwie Chords & Tabs

Version: 1 Type: Tab 0 ratings
1 star 2 stars 3 stars 4 stars 5 stars
comments

Baroque And Roll Tab

                                Baroque & Roll      Yngwie Malmsteen                                  




                                                                
D#||-------------------------|-------------------------8-10-12-|
A#||----------------13-12-10-|--9~-----9-10-12-10~-------------|
F#||-------------------------|---------------------------------|
C#||-------------------------|---------------------------------|
G#||-------------------------|---------------------------------|
D#||-------------------------|---------------------------------|


                                    
--13~-----10-12-13-12~-----8-10-12-|
-----------------------------------|
-----------------------------------|
-----------------------------------|
-----------------------------------|
-----------------------------------|


                                                        
--10h12-10h12-10h12h10h12h10h12h10-7-8-10-8~-----5-7-8-|
-------------------------------------------------------|
-------------------------------------------------------|
-------------------------------------------------------|
-------------------------------------------------------|
-------------------------------------------------------|


                                                                  
--7~-----4-5-7-5~--------------|-------------------------8-10-12-|
----------------------13-12-10-|--9~-----9-10-12-10~-------------|
-------------------------------|---------------------------------|
-------------------------------|---------------------------------|
-------------------------------|---------------------------------|
-------------------------------|---------------------------------|


                                    
--13~-----10-12-13-12~-----8-10-12-|
-----------------------------------|
-----------------------------------|
-----------------------------------|
-----------------------------------|
-----------------------------------|


                                                        
--10h12-10h12-10h12h10h12h10h12h10-7-8-10-8~-----5-7-8-|
-------------------------------------------------------|
-------------------------------------------------------|
-------------------------------------------------------|
-------------------------------------------------------|
-------------------------------------------------------|


                               
--7~-----4-5-7-5~-----7-4-5-7-|
------------------------------|
------------------------------|
------------------------------|
------------------------------|
------------------------------|


                                                                                
--8-5-7-8-10-7-8-10-12-8-10-12-13-10-12-13-15-12-13-15-17-13-15-17-19-15-17-19-2
--------------------------------------------------------------------------------
--------------------------------------------------------------------------------
--------------------------------------------------------------------------------
--------------------------------------------------------------------------------
--------------------------------------------------------------------------------


                                                                                
-----------------------------------------------------12-17h12-------------------
--18-17-15----------------------------------------13----------13----------------
-----------17-16-14-13-------------------------14----------------14-------------
-----------------------15-14-12-------------14----------------------14-10-------
--------------------------------15-14-12-15-------------------------------15~12-
--------------------------------------------------------------------------------


                                                                       
-----------10-12-13---13-12-10----------12-10-12-8-12-7-12----12---12-|
--10-12-13----------9----------13-12-10--------------------10----9----|
----------------------------------------------------------------------|
----------------------------------------------------------------------|
----------------------------------------------------------------------|
----------------------------------------------------------------------|


                                                                          
-----------10-12-13---13-12-10----------17-15-13----------------13-15-17-|
--10-12-13----------9----------13-12-10----------17-15-13-15-17----------|
-------------------------------------------------------------------------|
-------------------------------------------------------------------------|
-------------------------------------------------------------------------|
-------------------------------------------------------------------------|


                                                                           
-----------15-17-18----18-17-15----------17-15-17-13-17-12-17----17----17-|
--15-17-18----------14----------18-17-15----------------------15----14----|
--------------------------------------------------------------------------|
--------------------------------------------------------------------------|
--------------------------------------------------------------------------|
--------------------------------------------------------------------------|


                                                                  
-----------15-17-18----18-17-15----------------------------------|
--15-17-18----------14----------18-17-15h17-15h17-15h17-14-15~---|
-----------------------------------------------------------------|
-----------------------------------------------------------------|
-----------------------------------------------------------------|
-----------------------------------------------------------------|


                                                                 
--16h13----------13-13h10----------10-10h7--------7-7h4-------4-|
--------15----15----------12----12---------9----9-------6---6---|
-----------16----------------13--------------10-----------7-----|
----------------------------------------------------------------|
----------------------------------------------------------------|
----------------------------------------------------------------|


                                                                       
-----------10-12-13---13-12-10----------12-10-12-8-12-7-12----12---12-|
--10-12-13----------9----------13-12-10--------------------10----9----|
----------------------------------------------------------------------|
----------------------------------------------------------------------|
----------------------------------------------------------------------|
----------------------------------------------------------------------|


                                                                          
-----------10-12-13---13-12-10----------17-15-13----------------13-15-17-|
--10-12-13----------9----------13-12-10----------17-15-13-15-17----------|
-------------------------------------------------------------------------|
-------------------------------------------------------------------------|
-------------------------------------------------------------------------|
-------------------------------------------------------------------------|


                                                                           
-----------15-17-18----18-17-15----------17-15-17-13-17-12-17----17----17-|
--15-17-18----------14----------18-17-15----------------------15----14----|
--------------------------------------------------------------------------|
--------------------------------------------------------------------------|
--------------------------------------------------------------------------|
--------------------------------------------------------------------------|


                                                                  
-----------15-17-18----18-17-15----------------------------------|
--15-17-18----------14----------18-17-15h17-15h17-15h17-14-15~---|
-----------------------------------------------------------------|
-----------------------------------------------------------------|
-----------------------------------------------------------------|
-----------------------------------------------------------------|


                                                                       
--16h13----------16/19h16----------19-16h13----------12-13~--------17-|
--------15----15----------18----18----------15----15------------19----|
-----------16----------------19----------------16------------20-------|
----------------------------------------------------------------------|
----------------------------------------------------------------------|
----------------------------------------------------------------------|


                                                      
--20h17----17h14----14h11----11h8----8h5---8/-20/-x--|
--------19-------15-------13------10-----7-----------|
-----------------------------------------------------|
-----------------------------------------------------|
-----------------------------------------------------|
-----------------------------------------------------|


                                                          
----------------------------|----------------------------|
------------------12--13b---|--13~-----12--13--15--17b---|
--14~-----13--14------------|----------------------------|
----------------------------|----------------------------|
----------------------------|----------------------------|
----------------------------|----------------------------|


                               
------------------15--17--19--|
--18~-----17--18--------------|
------------------------------|
------------------------------|
------------------------------|
------------------------------|


                                                                             
--20~-----16h17h16h13h12----------------------------------------------------|
-------------------------15-13-12-------------------------------------------|
----------------------------------16-14-13-------------------------------13-|
-------------------------------------------15-14-12----------------14-15----|
----------------------------------------------------15-14-12-14-15----------|
----------------------------------------------------------------------------|


                                                          
----------------------------|----------------------------|
------------------12--13b---|--13~-----12--13--15--17b---|
--14~-----13--14------------|----------------------------|
----------------------------|----------------------------|
----------------------------|----------------------------|
----------------------------|----------------------------|


                                                        
-------------------------------------------15--17--19--|
--18h20h18h20h18h20h18h20h18h20h18h17--18--------------|
-------------------------------------------------------|
-------------------------------------------------------|
-------------------------------------------------------|
-------------------------------------------------------|


                                                                             
--20~-----19h20h19h17h16----------------------------------------------------|
-------------------------18-17-15----------------------------------15-17-18-|
----------------------------------17-16-14----------------14-16-17----------|
-------------------------------------------17-15-14-15-17-------------------|
----------------------------------------------------------------------------|
----------------------------------------------------------------------------|


                                                        
--17~-----16--17--19--20b---|--20~-------20r---19--17--|
----------------------------|--------------------------|
----------------------------|--------------------------|
----------------------------|--------------------------|
----------------------------|--------------------------|
----------------------------|--------------------------|


                                                    
--19~-------17--19--20--21b-|--21~-----------21r---|
----------------------------|----------------------|
----------------------------|----------------------|
----------------------------|----------------------|
----------------------------|----------------------|
----------------------------|----------------------|


                                                                     
--13-12-10-13-12-10-12-10-8-12-10-8-7-8-7-5-----------------------4-|
--------------------------------------------8-6-5-----------3-5-6---|
--------------------------------------------------5-4-2-4-5---------|
--------------------------------------------------------------------|
--------------------------------------------------------------------|
--------------------------------------------------------------------|


                                                                          
--5--17-15-13-12-15-13-12-10-13-12-10-8-12-10-8-7-10-8-7-5-5h7h5h7h5h7h5-|
-------------------------------------------------------------------------|
-------------------------------------------------------------------------|
-------------------------------------------------------------------------|
-------------------------------------------------------------------------|
-------------------------------------------------------------------------|


                                                                         
----17-15-13-12-15-13-12-10-13-12-10-8-12-10-8-7-10-8-7-5-5h7h5h7h5h7h5-|
------------------------------------------------------------------------|
------------------------------------------------------------------------|
------------------------------------------------------------------------|
------------------------------------------------------------------------|
------------------------------------------------------------------------|


                                                                   
-------------10h12h13h12h10---------------------------------------|
----10-12-13----------------13-12-10------------------------------|
-------------------------------------12-10-9----------------------|
---------------------------------------------12-10-9--------------|
-----------------------------------------------------12-10-8-7~---|
------------------------------------------------------------------|


                                                                         
----17-15-13-12-15-13-12-10-13-12-10-8-12-10-8-7-10-8-7-5-5h7h5h7h5h7h5-|
------------------------------------------------------------------------|
------------------------------------------------------------------------|
------------------------------------------------------------------------|
------------------------------------------------------------------------|
------------------------------------------------------------------------|


                                                                   
--5h2-------2-8h5-------5-11h8----------8-14h11----------11-17~---|
------4---4-------7---7--------10----10---------13----13----------|
--------5-----------8-------------11---------------14-------------|
------------------------------------------------------------------|
------------------------------------------------------------------|
------------------------------------------------------------------|


                                                                                
--20-16-17-19-20-19-17-16-20-16-17-19-20-19-17-16-------------------------------
--------------------------------------------------18-17-15----------------------
-----------------------------------------------------------17-14-13-------------
--------------------------------------------------------------------15-14-12----
-----------------------------------------------------------------------------15-
--------------------------------------------------------------------------------


                                                                             
------17-15-13-12-15-13-12-10-13-12-10-8-12-10-8-7-10-8-7-5-5h7h5h7h5h7h5h7h|
----------------------------------------------------------------------------|
----------------------------------------------------------------------------|
----------------------------------------------------------------------------|
--12/-----------------------------------------------------------------------|
----------------------------------------------------------------------------|


                                                                         
----17-15-13-12-15-13-12-10-13-12-10-8-12-10-8-7-10-8-7-5-5h7h5h7h5h7h5-|
------------------------------------------------------------------------|
------------------------------------------------------------------------|
------------------------------------------------------------------------|
------------------------------------------------------------------------|
------------------------------------------------------------------------|


                                                                                
-----------------------------10h12h13h12h10------------------------------------|
--------------------10-12-13----------------13-12-10---------------------------|
------------9-10-12----------------------------------12-10-9-------------------|
----9-10-12--------------------------------------------------12-10-9-----------|
---------------------------------------------------------------------12-10-8-7~|
-------------------------------------------------------------------------------|


                                                                         
----17-15-13-12-15-13-12-10-13-12-10-8-12-10-8-7-10-8-7-5-5h7h5h7h5h7h5-|
------------------------------------------------------------------------|
------------------------------------------------------------------------|
------------------------------------------------------------------------|
------------------------------------------------------------------------|
------------------------------------------------------------------------|


                                                                                
--20-16-17-19-20-19-17-16-20-16-17-19-20-19-17-16-20-16-17-19-20-19-17-16-20-16-
--------------------------------------------------------------------------------
--------------------------------------------------------------------------------
--------------------------------------------------------------------------------
--------------------------------------------------------------------------------
--------------------------------------------------------------------------------


                                                                                
--19h16----19/16-13----16/13h10----13/10h7---10/7h4---7/10h7---10/13h10----13-13
--------17----------15----------12---------9--------6--------9----------12------
--------------------------------------------------------------------------------
--------------------------------------------------------------------------------
--------------------------------------------------------------------------------
--------------------------------------------------------------------------------


                                                                                
--13-10-12-13-12-10-12----10-12-10----10-------10-------------------------------
-----------------------13----------13----12-13----13-12-13-10-12-13-12-10-12----
-----------------------------------------------------------------------------13-
--------------------------------------------------------------------------------
--------------------------------------------------------------------------------
--------------------------------------------------------------------------------


                                                                         
------------------------------------------------------------------------|
--8-10-8----------------------------------------------------------------|
---------10-10-7-9-10-9-7-----------------------------------------------|
--------------------------10-7-9-10-9-7-9-6-7-9-7-6---------------------|
----------------------------------------------------8-5-7-8-7-5---------|
----------------------------------------------------------------8-7-5-4-|


                                                                 
------------12-10-12-8-12-7-12-|-------------12-10-12-8-12-7-12-|
-------------------------------|--10~---------------------------|
-------------------------------|--------------------------------|
-------------------------------|--------------------------------|
-------------------------------|--------------------------------|
--5~---------------------------|--------------------------------|


                                                                   
-------------13-12-13-10-13-8-13-|-------------12-10-12-8-12-7-12-|
--10~----------------------------|--12~---------------------------|
---------------------------------|--------------------------------|
---------------------------------|--------------------------------|
---------------------------------|--------------------------------|
---------------------------------|--------------------------------|


                                                             
-------------11h8--------------|------------10h7------------|
--10~-------------10-----------|-----------------9----------|
---------------------11-8----8-|-------------------10-7---7-|
--------------------------10---|--9~--------------------9---|
-------------------------------|----------------------------|
-------------------------------|----------------------------|


                                                      
------------8h5-----------|------------7h4-----------|
----------------7---------|----------------6---------|
------------------8-5---5-|------------------7-4---4-|
--7~------------------7---|--6~------------------6---|
--------------------------|--------------------------|
--------------------------|--------------------------|


                                                                   
--5-0-0-0-7-0-0-0-8-0-0-0-4-0-0-0-5-0-0-0-7-0-0-0-8-0-0-0-4-0-0-0-|
------------------------------------------------------------------|
------------------------------------------------------------------|
------------------------------------------------------------------|
------------------------------------------------------------------|
------------------------------------------------------------------|


                                                                             
--5-0-0-0-7-0-0-0-8-0-0-0-16-0-0-0-16b-------|-----------12-10-12-8-12-7-12-|
---------------------------------------------|------------------------------|
---------------------------------------------|------------------------------|
---------------------------------------------|------------------------------|
---------------------------------------------|------------------------------|
---------------------------------------------|------------------------------|


                                                                   
-------------12-10-12-8-12-7-12-|-------------13-12-13-10-13-8-13-|
--10~---------------------------|--10~----------------------------|
--------------------------------|---------------------------------|
--------------------------------|---------------------------------|
--------------------------------|---------------------------------|
--------------------------------|---------------------------------|


                                                                 
-------------12-10-12-8-12-7-12-|-------------11h8--------------|
--12~---------------------------|--10~-------------10-----------|
--------------------------------|---------------------11-8----8-|
--------------------------------|--------------------------10---|
--------------------------------|-------------------------------|
--------------------------------|-------------------------------|


                                                        
------------10h7------------|------------8h5-----------|
-----------------9----------|----------------7---------|
-------------------10-7---7-|------------------8-5---5-|
--9~--------------------9---|--7~------------------7---|
----------------------------|--------------------------|
----------------------------|--------------------------|


                           
------------7h4-----------|
----------------6---------|
------------------7-4---4-|
--6~------------------6---|
--------------------------|
--------------------------|


                                                                   
--5-0-0-0-7-0-0-0-8-0-0-0-4-0-0-0-5-0-0-0-7-0-0-0-8-0-0-0-4-0-0-0-|
------------------------------------------------------------------|
------------------------------------------------------------------|
------------------------------------------------------------------|
------------------------------------------------------------------|
------------------------------------------------------------------|

[ Tab from: http://www.guitartabs.cc/tabs/m/malmsteen_yngwie/baroque_and_roll_tab.html ]
                                              
--5-0-0-0-7-0-0-0-8-0-0-0-16-0-0-0-16b-------|
---------------------------------------------|
---------------------------------------------|
---------------------------------------------|
---------------------------------------------|
---------------------------------------------|


                                                                                
--20h17----20-17h13----13-19h15----19/13h12----12-17h13----17/13-10----10-15h12-
--------17----------13----------15----------14----------15----------12----------
--------------------------------------------------------------------------------
--------------------------------------------------------------------------------
--------------------------------------------------------------------------------
--------------------------------------------------------------------------------


                                                                           
--13h10----13/10h7---7-12h8----12/10h7----10-12h13h12h10------------------|
--------12---------9--------10---------10----------------13-12-10-9-10~---|
--------------------------------------------------------------------------|
--------------------------------------------------------------------------|
--------------------------------------------------------------------------|
--------------------------------------------------------------------------|


                                                                                
--20h17----20h17-13----13-19h15----19/13h12----12-17h13----17/13-10----10-15h12-
--------17----------13----------15----------14----------15----------12----------
--------------------------------------------------------------------------------
--------------------------------------------------------------------------------
--------------------------------------------------------------------------------
--------------------------------------------------------------------------------


                                                                    
--13h10----13/10h7---7-12h8----12/13~-12h13h12h10------------------|
--------12---------9--------10--------------------13-12-10-9-10~---|
-------------------------------------------------------------------|
-------------------------------------------------------------------|
-------------------------------------------------------------------|
-------------------------------------------------------------------|


                                                                                
--8-5-7-8-10-7-8-10-12-8-10-12-13-10-12-13-15-12-13-15-17-13-15-17-19-15-17-19-2
--------------------------------------------------------------------------------
--------------------------------------------------------------------------------
--------------------------------------------------------------------------------
--------------------------------------------------------------------------------
--------------------------------------------------------------------------------


                                                                 
----------------------------------------------------------------|
--18-17-15------------------------------------------------------|
-----------17-16-14-13------------------------------------------|
-----------------------15-14-12---------------------------------|
--------------------------------15-14-12-11-12-14-12~--11-12~---|
----------------------------------------------------------------|


                                                                                
--8-5-7-8-10-7-8-10-12-8-10-12-13-10-12-13-15-12-13-15-17-13-15-17-19-15-17-19-2
--------------------------------------------------------------------------------
--------------------------------------------------------------------------------
--------------------------------------------------------------------------------
--------------------------------------------------------------------------------
--------------------------------------------------------------------------------


                                                                              
--------------------------------------------------------------------12-17~---|
--18-17-15-------------------------------------------------------13----------|
-----------17-16-14-13----------------------------------------14-------------|
-----------------------15-14-12----------------------------14----------------|
--------------------------------15-14-12-11-12-14-12~12-15-------------------|
-----------------------------------------------------------------------------|


                                                                           
------------------|------|------|------|------|------|------|------|------|
------------------|------|------|------|------|------|------|------|------|
------------------|------|------|------|------|------|------|------|------|
------------------|------|------|------|------|------|------|------|------|
------------------|------|------|------|------|------|------|------|------|
------------------|------|------|------|------|------|------|------|------|


                                                                    
------|------|------|------|------|------|-------------------------|
------|------|------|------|------|------|----------------13-12-10-|
------|------|------|------|------|------|-------------------------|
------|------|------|------|------|------|-------------------------|
------|------|------|------|------|------|-------------------------|
------|------|------|------|------|------|-------------------------|


                                                                      
-------------------------8-10-12-|--13~-----10-12-13-12~-----8-10-12-|
--9~-----9-10-12-10~-------------|-----------------------------------|
---------------------------------|-----------------------------------|
---------------------------------|-----------------------------------|
---------------------------------|-----------------------------------|
---------------------------------|-----------------------------------|


                                                        
--10h12-10h12-10h12h10h12h10h12h10-7-8-10-8~-----5-7-8-|
-------------------------------------------------------|
-------------------------------------------------------|
-------------------------------------------------------|
-------------------------------------------------------|
-------------------------------------------------------|


                                                                  
--7~-----4-5-7-5~--------------|-------------------------8-10-12-|
----------------------13-12-10-|--9~-----9-10-12-10~-------------|
-------------------------------|---------------------------------|
-------------------------------|---------------------------------|
-------------------------------|---------------------------------|
-------------------------------|---------------------------------|


                                    
--13~-----10-12-13-12~-----8-10-12-|
-----------------------------------|
-----------------------------------|
-----------------------------------|
-----------------------------------|
-----------------------------------|


                                                      
--10~-----7-8-10-8h10h8h10h8h10h8h10h8h10h8h10-5-7-8-|
-----------------------------------------------------|
-----------------------------------------------------|
-----------------------------------------------------|
-----------------------------------------------------|
-----------------------------------------------------|


                               
--7~-----4-5-7-5~-----7-4-5-7-|
------------------------------|
------------------------------|
------------------------------|
------------------------------|
------------------------------|


                                                                                
--8-5-7-8-10-7-8-10-12-8-10-12-13-10-12-13-15-12-13-15-17-13-15-17-19-15-17-19-2
--------------------------------------------------------------------------------
--------------------------------------------------------------------------------
--------------------------------------------------------------------------------
--------------------------------------------------------------------------------
--------------------------------------------------------------------------------


                                                                     
----------------------------------------------------------12h17~----|
--18-17-15---------------------------------------------13-----------|
-----------17-16-14-13------------------------------14--------------|
-----------------------15-14-12------------------14-----------------|
--------------------------------15-14-12-11-12~---------------------|
--------------------------------------------------------------------|


                                                                       
-----------10-12-13---13-12-10----------12-10-12-8-12-7-12----12---12-|
--10-12-13----------9----------13-12-10--------------------10----9----|
----------------------------------------------------------------------|
----------------------------------------------------------------------|
----------------------------------------------------------------------|
----------------------------------------------------------------------|


                                                                          
-----------10-12-13---13-12-10----------17-15-13----------------13-15-17-|
--10-12-13----------9----------13-12-10----------17-15-13-15-17----------|
-------------------------------------------------------------------------|
-------------------------------------------------------------------------|
-------------------------------------------------------------------------|
-------------------------------------------------------------------------|


                                                                           
-----------15-17-18----18-17-15----------17-15-17-13-17-12-17----17----17-|
--15-17-18----------14----------18-17-15----------------------15----14----|
--------------------------------------------------------------------------|
--------------------------------------------------------------------------|
--------------------------------------------------------------------------|
--------------------------------------------------------------------------|


                                                                  
-----------15-17-18----18-17-15----------------------------------|
--15-17-18----------14----------18-17-15h17-15h17-15h17-14-15~---|
-----------------------------------------------------------------|
-----------------------------------------------------------------|
-----------------------------------------------------------------|
-----------------------------------------------------------------|


                                                                
--16h13----------13-13h10----------10-10h7--------7-7h4---12/--|
--------15----15----------12----12---------9----9-------6------|
-----------16----------------13--------------10----------------|
---------------------------------------------------------------|
---------------------------------------------------------------|
---------------------------------------------------------------|


                                                                       
-----------10-12-13---13-12-10----------12-10-12-8-12-7-12----12---12-|
--10-12-13----------9----------13-12-10--------------------10----9----|
----------------------------------------------------------------------|
----------------------------------------------------------------------|
----------------------------------------------------------------------|
----------------------------------------------------------------------|


                                                                          
-----------10-12-13---13-12-10----------17-15-13----------------13-15-17-|
--10-12-13----------9----------13-12-10----------17-15-13-15-17----------|
-------------------------------------------------------------------------|
-------------------------------------------------------------------------|
-------------------------------------------------------------------------|
-------------------------------------------------------------------------|


                                                                           
-----------15-17-18----18-17-15----------17-15-17-13-17-12-17----17----17-|
--15-17-18----------14----------18-17-15----------------------15----14----|
--------------------------------------------------------------------------|
--------------------------------------------------------------------------|
--------------------------------------------------------------------------|
--------------------------------------------------------------------------|


                                                                  
-----------15-17-18----18-17-15----------------------------------|
--15-17-18----------14----------18-17-15h17-15h17-15h17-14-15~---|
-----------------------------------------------------------------|
-----------------------------------------------------------------|
-----------------------------------------------------------------|
-----------------------------------------------------------------|


                                                                        
--19h16----------16-16h13----------13-13h10----------13-10h7--------10-|
--------18----18----------15----15----------12----12---------9----9----|
-----------19----------------16----------------13--------------10------|
-----------------------------------------------------------------------|
-----------------------------------------------------------------------|
-----------------------------------------------------------------------|


                                                      
--20h17----17h14----14h11----11h8----8h5---8/-20/-x--|
--------19-------15-------13------10-----7-----------|
-----------------------------------------------------|
-----------------------------------------------------|
-----------------------------------------------------|
-----------------------------------------------------|


                                                          
----------------------------|----------------------------|
------------------12--13b---|--13~-----12--13--15--17b---|
--14~-----13--14------------|----------------------------|
----------------------------|----------------------------|
----------------------------|----------------------------|
----------------------------|----------------------------|


                               
------------------15--17--19--|
--18~-----17--18--------------|
------------------------------|
------------------------------|
------------------------------|
------------------------------|


                                                                             
--20~-----16h17h16h13h12----------------------------------------------------|
-------------------------15-13-12-------------------------------------------|
----------------------------------16-14-13-------------------------------13-|
-------------------------------------------15-14-12----------------14-15----|
----------------------------------------------------15-14-12-14-15----------|
----------------------------------------------------------------------------|


                                                          
----------------------------|----------------------------|
------------------12--13b---|--13~-----12--13--15--17b---|
--14~-----13--14------------|----------------------------|
----------------------------|----------------------------|
----------------------------|----------------------------|
----------------------------|----------------------------|


                                                        
-------------------------------------------15--17--19--|
--18h20h18h20h18h20h18h20h18h20h18h17--18--------------|
-------------------------------------------------------|
-------------------------------------------------------|
-------------------------------------------------------|
-------------------------------------------------------|


                                                                 
--20~-----20h19h17h20h19-17-19-17-16----------------------------|
-------------------------------------18-17-15-18-17-15----------|
-------------------------------------------------------16-14~13-|
----------------------------------------------------------------|
----------------------------------------------------------------|
----------------------------------------------------------------|


                                                        
--17~-----16--17--19--20b---|--20~-------20r---19--17--|
----------------------------|--------------------------|
----------------------------|--------------------------|
----------------------------|--------------------------|
----------------------------|--------------------------|
----------------------------|--------------------------|


                                                    
--19~-------17--19--20--21b-|--21~-----------21r---|
----------------------------|----------------------|
----------------------------|----------------------|
----------------------------|----------------------|
----------------------------|----------------------|
----------------------------|----------------------|


                                                                     
--13-12-10-13-12-10-12-10-8-12-10-8-7-8-7-5-----------------------4-|
--------------------------------------------8-6-5-----------3-5-6---|
--------------------------------------------------5-4-2-4-5---------|
--------------------------------------------------------------------|
--------------------------------------------------------------------|
--------------------------------------------------------------------|


                                                                  
--------5-8-5-8---------12-17----12-17-12------------------------|
------5---------5----12-------12----------15-13-12---------------|
----5-------------13-------------------------------14-13-14~-----|
--7--------------------------------------------------------------|
-----------------------------------------------------------------|
-----------------------------------------------------------------|


                                                                          
--5--17-15-13-12-15-13-12-10-13-12-10-8-12-10-8-7-10-8-7-5-5h7h5h7h5h7h5-|
-------------------------------------------------------------------------|
-------------------------------------------------------------------------|
-------------------------------------------------------------------------|
-------------------------------------------------------------------------|
-------------------------------------------------------------------------|


                                                                         
----17-15-13-12-15-13-12-10-13-12-10-8-12-10-8-7-10-8-7-5-5h7h5h7h5h7h5-|
------------------------------------------------------------------------|
------------------------------------------------------------------------|
------------------------------------------------------------------------|
------------------------------------------------------------------------|
------------------------------------------------------------------------|


                                                                     
-------------10h12h13h12h10-----------------------------------------|
----10-12-13----------------13-12-10--------------------------------|
-------------------------------------12-10-9------------------------|
---------------------------------------------12-10-9----10-12-15~---|
-----------------------------------------------------14-------------|
--------------------------------------------------------------------|


                                                                         
----17-15-13-12-15-13-12-10-13-12-10-8-12-10-8-7-10-8-7-5-5h7h5h7h5h7h5-|
------------------------------------------------------------------------|
------------------------------------------------------------------------|
------------------------------------------------------------------------|
------------------------------------------------------------------------|
------------------------------------------------------------------------|


                                                                                
--20-16-17-19-20-19-17-16-20-16-17-19-20-19-17-16-20-16-17-19-20-19-17-16-20-16-
--------------------------------------------------------------------------------
--------------------------------------------------------------------------------
--------------------------------------------------------------------------------
--------------------------------------------------------------------------------
--------------------------------------------------------------------------------


                                                                                
--20-16-17-19-20-19-17-16-19r---20-19-17-16-------------------------------------
--------------------------------------------18-17-15-13-------------------------
--------------------------------------------------------14-13-------------------
--------------------------------------------------------------15-14-12----------
-----------------------------------------------------------------------15-14-12-
--------------------------------------------------------------------------------


                                                                             
------17-15-13-12-15-13-12-10-13-12-10-8-12-10-8-7-10-8-7-5-5h7h5h7h5h7h5h7h|
----------------------------------------------------------------------------|
----------------------------------------------------------------------------|
----------------------------------------------------------------------------|
--11------------------------------------------------------------------------|
----------------------------------------------------------------------------|


                                                                         
----17-15-13-12-15-13-12-10-13-12-10-8-12-10-8-7-10-8-7-5-5h7h5h7h5h7h5-|
------------------------------------------------------------------------|
------------------------------------------------------------------------|
------------------------------------------------------------------------|
------------------------------------------------------------------------|
------------------------------------------------------------------------|


                                                                             
-----------------------------10h12h13h12h10---------------------------------|
--------------------10-12-13----------------13-12-10------------------------|
------------9-10-12----------------------------------12-10-9----------------|
----9-10-12--------------------------------------------------12-10-9----10--|
---------------------------------------------------------------------12-----|
----------------------------------------------------------------------------|


                                                                         
----17-15-13-12-15-13-12-10-13-12-10-8-12-10-8-7-10-8-7-5-5h7h5h7h5h7h5-|
------------------------------------------------------------------------|
------------------------------------------------------------------------|
------------------------------------------------------------------------|
------------------------------------------------------------------------|
------------------------------------------------------------------------|


                                                                   
--5h2-------2-8h5-------5-11h8----------8-14h11----------11-17~---|
------4---4-------7---7--------10----10---------13----13----------|
--------5-----------8-------------11---------------14-------------|
------------------------------------------------------------------|
------------------------------------------------------------------|
------------------------------------------------------------------|


                                                                                
--20-19-17-20-19-17-17-16-13-17-16-13-------------------------------------------
--------------------------------------17-15-13-12-------------------------------
--------------------------------------------------14-13-10----14-13-------------
-----------------------------------------------------------15-------15-14-12----
-----------------------------------------------------------------------------15-
--------------------------------------------------------------------------------


                                                                             
---------------------17-----------------------------------17----------------|
------------------17----17-----------------------------17----17-------------|
---------------17----------17-----------------------17----------17----------|
------------19----------------19-----------------19----------------19-------|
---------19----------------------19-15--------19----------------------19-15-|
--17--17-------------------------------17--17-------------------------------|


                                                       
---------------------17------------------------------||
------------------17----17---------------------------||
---------------17----------17--------------13--14----||
------------19----------------19---------------------||
---------19----------------------19-15---------------||
--17--17-------------------------------17------------||


Comments