Maliq N D'essential - Terdiam Chords & Tabs

 

Terdiam Chords & Tabs

Maliq N D'essential Chords & Tabs

Version: 1 Type: Bass Tab 0 ratings
1 star 2 stars 3 stars 4 stars 5 stars
comments

Terdiam Bass Tab

Terdiam by Maliq n d'essential
written by : Angga Puradiredja
tabbed by  : Justinus Juan
First hit single by the neo-soul jazz Indonesian band, called maliq n d'essential. a very sexy song !
 
Intro &
 Verse
 
G|--------------------------------------------------------------------|
D|--------------------------------------------------------------------|
A|---12/0-----5---5—-3----8--7----5-3---------------------------------|
E|---------5----------------------------------------------------------|
 
G|--------------------------------------------------------------------|
D|--------------------------------------------------------------------|
A|--------5---5—-3----8--7--6--5---7----------------------------------|
E|-----5--------------------------------------------------------------|
 
G|--------------------------------------------------------------------|
D|--------------------------------------------------------------------|
A|--------5---5—-3----8--7----5-3-------------------------------------|
E|-----5--------------------------------------------------------------|
 
G|--------------------------------------------------------------------|
D|--------------------------------------------------------------------|
A|--------5---5—-3----8--7--6--5---7----------------------------------|
E|-----5---------------8-----6--------Slide---------------------------|
 
Chorus
 
G|------------------------------------------|
D|--------------------------------2--2------|
A|--------4---7----4--5-5-4---2--------4--2-|
E|-----5--------7------5--------------------|
 
G|----------------------------4---------------------------------------|
D|--------------------------------4----------2------------------------|
A|--------4---7----4--5-5-4---------2---------------------------------|
E|-----5--------7------5----------------------------------------------|
 
Abis Chorus kdua
 
G|--------------------------------------------|
D|-----3-3-4---2-----------3-3-4---4-3-2------|
A|------3----------3--------3-------------3---|
E|--------------------------------------------|
 
G|-----------------2--------------------------------------------------|
D|-----3-3-4---2-----------3-3-4---4-3-2------------------------------|
A|------3-------------------3-------------3---------------------------|
E|--------------------------------------------------------------------|
 
Improv Chorus2 trakir
 
G|---------------------2h4p2------------------------------------------|
D|-----------4-3-2—2h4------------------------2-----------------------|
A|--------4-------------------0h2h4/4--4--2---------------------------|
E|-----5--------------------------------------------------------------|
 
Note : “/” = slur

[ Tab from: http://www.guitartabs.cc/tabs/m/maliq_n_dessential/terdiam_btab.html ]
Comments