Maldita - Porque Chords & Tabs

 

Maldita Chords & Tabs

Version: 1 Type: Tab 0 ratings
1 star 2 stars 3 stars 4 stars 5 stars
comments

Porque Tab

   
-------------------------------------------------------------------------------
			     Porque? - Maldita
-------------------------------------------------------------------------------
Tabbed by:U-G21
Email:ditsapit21@yahoo.com

As requested by eheads22, ito na po yung whole version.. Pasensya na po kung natagalan..

Take Note: Again, kinapa ko lang po ito kaya all consrtuctive critisisms are welcome.. 
Yung pong "TAP" hindi po siya actual na tap, pang stop lang po iyon ng sound tulad ng 
nandoon sa actual song.. Again, this is not
100% correct but I really hope this helps..

Tuning:eBGDAE (Capo on 2nd Fret)

Intro:
e|-----0h2p0-----0--2-----2--0----0--2-----2--------------------------------|
B|------------3-----3--T--3----3--3--3--T--3-----3--0-----------------------|
G|--2------------------A----------------A-----0-----------------------------|
D|---------------0-----P--0-------------P-----------------------------------|
A|--------------------------------------------------------------------------|
E|--------------------------------3--------3--------------------------------|
                 D                G

e|--------------0--------------0-----0--------------------------------------|
B|-----------------3--------2--2--T--2--------------------------------------|
G|-----------0--------0-----2-----A-----------------------------------------|
D|--------2--------------2--------P-----------------------------------------|
A|-----2--------------------0--------0--------------------------------------|
E|--0-----------------------------------------------------------------------|
    Em7                     A

e|-----0h2p0-----0--2-----2--0-----0--2-----2--2--3--3/5--------------------|
B|------------3--3--3--T--3-----3--3--3--T--3-------------------------------|
G|--2------------------A-----------------A----------------------------------|
D|---------------0-----P--0--------------P----------------------------------|
A|--------------------------------------------------------------------------|
E|---------------------------------3--------3-------------------------------|
                 D                 G

e|--------------0--------------------5--------------------------------------|
B|-----------------3--------2-----2-----------------------------------------|
G|-----------0--------0-----2--2--------------------------------------------|
D|--------2--------------2--------------------------------------------------|
A|-----2--------------------0-----------------------------------------------|
E|--0-----------------------------------------------------------------------|
    Em7                     A

Verse:
e|-----0--------0-----------2--------2--------------------------------------|
B|--3-----T--3-----T-----3-----T--3-----------------------------------------|
G|--------A--------A-----------A--------------------------------------------|
D|--0-----P--0-----P-----------P--------------------------------------------|
A|--------------------------------------------------------------------------|
E|--------------------0--3--------3-----------------------------------------|
    D                    G

e|--------0--------0-----------0--------0-----------------------------------|
B|-----3-----T--3-----T-----2-----T--2--------------------------------------|
G|-----------A--------A-----2-----A--2--------------------------------------|
D|-----------P--------P-----------P-----------------------------------------|
A|--------------------------0--------0--------------------------------------|
E|--3--0--------0--------0--------------------------------------------------|
       Em7                  A

Play verse 2 times pero sa last time yung sa 'A' part magiging..
e|--------0--------0-----------0-----0--------------------------------------|
B|-----3-----T--3-----T-----2-----T--2--T--2--2-----------------------------|
G|-----------A--------A-----2-----A--2--A--2--2-----------------------------|
D|-----------P--------P-----------P-----P-----------------------------------|
A|--------------------------0--------0--------------------------------------|
E|--3--0--------0--------0--------------------------------------------------|
                            A

Refrain:
e|-----0--------0--------0--------0--------2--------2--------2--------2-----|
B|--3-----T--3-----T--2-----T--2-----T--3-----T--3-----T--3-----T--3-----T--|
G|--------A--------A--------A--------A--------A--------A--------A--------A--|
D|--------P--------P--------P--------P--------P--------P--------P--------P--|
A|--2--------2--------0--------0--------------------------------------------|
E|--------------------------------------3--------3--------3--------3--------|
    Bm                A                 G
[ Tab from: http://www.guitartabs.cc/tabs/m/maldita/porque_tab.html ]
e|-----0--------0--------0--------0--------2--------2-----2-----------------|
B|--3-----T--3-----T--2-----T--2-----T--3-----T--3-----T--3--3--------------|
G|--------A--------A--------A--------A--------A--------A--------0-----------|
D|--------P--------P--------P--------P--------P--------P-----------0--------|
A|--------------------------------------------------------------------------|
E|--0--------0--------2--------2--------3--------3--------3-----------------|
    Em7               F#m               G

Chorus: Play this part 2 times, from "Porque contigo.." up to "..yo ya cinti"
e|-----2--------2--------2--------2--------0--------0--------3--------3-----|
B|--3-----T--3-----T--3-----T--3-----T--2-----T--2-----T--3-----T--3-----T--|
G|--------A--------A--------A--------A--------A--------A--------A--------A--|
D|--0-----P--0-----P--------P--------P--------P--------P--------P--------P--|
A|--------------------------------------------------------------------------|
E|--------------------0--------0--------2--------2--------3--------3--------|
    D                 Em7               F#m               G

Then this part, from "Ta pi di.." 'until "..ulvida yo contigo"
e|-----0--------0--------0--------0--------0--------0--------3--------3-----|
B|--3-----T--3-----T--3-----T--3-----T--2-----T--2-----T--3-----T--3-----T--|
G|--------A--------A--------A--------A--------A--------A--------A--------A--|
D|--0-----P--0-----P--------P--------P--------P--------P--------P--------P--|
A|--------------------------------------------------------------------------|
E|--------------------0--------0--------2--------2--------3--------3--------|
    D                 Em7               F#m               G

e|-----0--------0--------0--------0--------0--------0-----3-----------------|
B|--3-----T--3-----T--3-----T--3-----T--2-----T--2-----T--3-----------------|
G|--------A--------A--------A--------A--------A--------A--------------------|
D|--0-----P--0-----P--------P--------P--------P--------P--------------------|
A|--------------------------------------------------------------------------|
E|--------------------0--------0--------2--------2--------3-----------------|
    D                 Em7               F#m               G

Solo:
e|--0--2-----2--0-----0--2-----2--2--3--3/5---------------------------------|
B|--3--3--T--3-----3--3--3--T--3--------------------------------------------|
G|--------A-----------------A-----------------------------------------------|
D|--0-----P--0--------------P-----------------------------------------------|
A|--------------------------------------------------------------------------|
E|--------------------3--------3--------------------------------------------|
    D                 G

e|--------------0--------------------5--------------------------------------|
B|-----------------3--------2-----2-----------------------------------------|
G|-----------0--------0-----2--2--------------------------------------------|
D|--------2--------------2--------------------------------------------------|
A|-----2--------------------0-----------------------------------------------|
E|--0-----------------------------------------------------------------------|
    Em7                     A


Bridge:
e|-----0--------0--------0--------0--------2--------2--------0--------0-----|
B|--3-----T--3-----T--2-----T--2-----T--3-----T--3-----T--2-----T--2-----T--|
G|--------A--------A--------A--------A--------A--------A--------A--------A--|
D|--------P--------P--------P--------P--------P--------P--------P--------P--|
A|--------------------------------------------------------0--------0--------|
E|--0--------0--------2--------2--------3--------3--------------------------|
    Em7               F#m               G                 A

e|-----0--------0--------0--------0--------2--------2-----0-----------------|
B|--3-----T--3-----T--2-----T--2-----T--3-----T--3-----T--2-----------------|
G|--------A--------A--------A--------A--------A--------A--------------------|
D|--------P--------P--------P--------P--------P--------P--------------------|
A|--------------------------------------------------------0-----------------|
E|--0--------0--------2--------2--------3--------3--------------------------|
    Em7               F#m               G                 A

Pre-Tagalog Chorus: Strum the following once (D, Em7, F#m, G).
Pag dating po sa "Bien simple lang..", doon papasok yung drums.
At this time, pwede na po ilipat yung capo sa 4th fret.
Pag naka capo na po sa 4th fret, after the line ".. cosa yo ya cinti", strum na po yung 
(A, Em7).

Tagalog Chorus: Strum nalang po yung (D, Em7, F#m, G)3x. Sa 4th time i-fade nalang yung 'G'

************************************

| /   slide up
| h   hammer-on
| p   pull-off

************************************
Comments