Malachai - Snowflake Chords & Tabs

 

Snowflake Chords & Tabs

Malachai Chords & Tabs

Version: 3 Type: Tab 0 ratings
1 star 2 stars 3 stars 4 stars 5 stars
comments

Snowflake Tab

Malachai - Snowflake (Solo)
===========================
Submitted by medward4
*Tabbed by ear but sounds very accurate when played along with the song
*Too lazy to space properly...you'll have to figure out timing yourself


(/) Slide Up  (\) Slide Down  (h) Hammer On  (p) Pull Off  (b) Bend (r) Release (v) Vibrato

E|-----------------------------------------------------------------------------------------|
B|-12----12----------12--------------------------------------------------------------------|
G|-12h14-12-12-------12h14-12----12-------10--------------------------------------12-------|
D|----------12h14-------------14-12h14----10h12-10-12-10--------------10-12-12/14----14\12-|
A|----------------12-------------------12----------------12-12----/12----------------------|
E|-----------------------------------------------------------------------------------------|
[ Tab from: http://www.guitartabs.cc/tabs/m/malachai/snowflake_tab_ver_3.html ]
E|-----------------------------------------------------------------------------------|
B|-12----12----------12----12--------------------------------------------------------|
G|-12h14-12-12-------12h14-12-12-----------------------------------------------------|
D|----------12h14-------------12h14-14------10----------10----------10---------------|
A|----------------12-------------------12---10h12-12-10-10h12-10-12-10h12-10---------|
E|---------------------------------------------------------------------------12-10-8-|


E|------------------------------------------------------------------------------------------|
B|------------------------------------------------------------------------------------------|
G|-8/14-16-14-16-16--16h17--12/14-17-17\16--16\14-12-14---14-16-17/19-17--16h17p16----------|
D|---------------------------------------------------------------------------------19-17-19-|
A|------------------------------------------------------------------------------------------|
E|------------------------------------------------------------------------------------------|

E|-------------------------------------------------------------------------|
B|-12----------------------------------------------------------------------|
G|-12h14-12------------------------------14-------------19b21-19-17--------|
D|----------14-12\10--12/14-12h14--14/16----16\14-12----------------19-----|
A|-------------------------------------------------------------------------|
E|-------------------------------------------------------------------------|

E|----------------------------|
B|----------------------------|
G|-------17-17-19b21r19p17----|
D|-17h19-------------------19-|
A|----------------------------|
E|----------------------------|
Comments