Major Accident - Step By Step Chords & Tabs

 

Step By Step Chords & Tabs

Major Accident Chords & Tabs

Version: 1 Type: Tab 0 ratings
1 star 2 stars 3 stars 4 stars 5 stars
comments

Step By Step Tab

   
Band: Major Accident
Song: Step by Step


tabbed by jam9383@yahoo.com


Intro

e--7-8-8-10-7-8-8-10-7-8-8-10-7-8-8-10-7-8-8-10/-15-15-----------------|
B----------------------------------------------------------------------|
G----------------------------------------------------------------------|
D----------------------------------------------------------------------|
A----------------------------------------------------------------------|
E----------------------------------------------------------------------|

Verse

e----------------------------------------------------------------------|
B----------------------------------------------------------------------|
G-----------7-7-7-7--4-4-4-4--2--4-------------------------------------|
D--5-5-5-5--7-7-7-7--4-4-4-4--2--4-------------------------------------|
A--5-5-5-5--5-5-5-5--2-2-2-2--0--2-------------------------------------|
E--3-3-3-3-------------------------------------------------------------|

Chorus

e----------------------------------------------------------------------|
B----------------------------------------------------------------------|
G-------9---7------------5-5-4-----------------------------------------|
D---7---9---7---5-5-5-5--5-5-4-----------------------------------------|
A---7---7---5---5-5-5-5--3-3-2-----------------------------------------|
E---5-----------3-3-3-3------------------------------------------------|

Bridge
[ Tab from: http://www.guitartabs.cc/tabs/m/major_accident/step_by_step_tab.html ]
e----------------------------------------------------------------------|
B----------------------------------------------------------------------|
G--7-7-7-7-7----11-11-12-----------------------------------------------|
D--7-7-7-7-7----11-11-12-----------------------------------------------|
A--5-5-5-5-5----9--9--10-----------------------------------------------|
E----------------------------------------------------------------------|

Solo

x3
e-----------------------------------------------------------------------|
B-17-17-15-15-14-14-12-12-15-15-14-14-12-12-10-10-10-10-8-8-7-7-8-10-10-|
G-----------------------------------------------------------------------|
D-----------------------------------------------------------------------|
A-----------------------------------------------------------------------|
E-----------------------------------------------------------------------|

e---------------------------------------------------------------------|
B-10-10-8-7-8~--------------------------------------------------------|
G---------------------------------------------------------------------|
D---------------------------------------------------------------------|
A---------------------------------------------------------------------|
E---------------------------------------------------------------------|

Outro
e---------------------------------------------------------------------|
B------3-5-3--------3-5-3--------3-5-3------3-5-3------3-5--3---------|
G--2-4----------2-4----------2-4--------2-4--------2-4----------------|
D---------------------------------------------------------------------|
A---------------------------------------------------------------------|
E---------------------------------------------------------------------|

any comments/corrections contact me, please rate
Comments