Major Accident - Sorry Chords & Tabs

 

Sorry Chords & Tabs

Major Accident Chords & Tabs

Version: 1 Type: Tab 0 ratings
1 star 2 stars 3 stars 4 stars 5 stars
comments

Sorry Tab

Band: Major Accident
Song: Sorry


tabbed by jam9383@yahoo.com


Verse

e---------------------------------------------------------------------|
B---------------------------------------------------------------------|
G--4-4-4-4-4-4--7-7-7-7-----------------------------------------------|
D--4-4-4-4-4-4--7-7-7-7--7-7-7-7--5-4-4-------------------------------|
A--2-2-2-2-2-2--5-5-5-5--7-7-7-7--5-4-4-------------------------------|
E------------------------5-5-5-5--3-2-2-------------------------------|

Pre-Chorus

e---------------------------------------------------------------------|
B---------------------------------------------------------------------|
G---------------------------------------------------------------------|
D--7-7-7-7---10-10-10-10---12-12-12-12--------------------------------|
A--7-7-7-7---10-10-10-10---12-12-12-12--------------------------------|
E--5-5-5-5---8---8--8--8---10-10-10-10--------------------------------|

Chorus
[ Tab from: http://www.guitartabs.cc/tabs/m/major_accident/sorry_tab.html ]
e---------------------------------------------------------------------|
B---------------------------------------------------------------------|
G--9-9-9-9-----------7-7-7-7-7-7-7-7----------------------------------|
D--9-9-9-9--7-7-7-7--7-7-7-7-7-7-7-7----------------------------------|
A--7-7-7-7--7-7-7-7--5-5-5-5-5-5-5-5----------------------------------|
E-----------5-5-5-5---------------------------------------------------|

e---------------------------------------------------------------------|
B--5h6h8---8----6---5----3~-------------------------------------------|
G---------------------------------------------------------------------|
D---------------------------------------------------------------------|
A---------------------------------------------------------------------|
E---------------------------------------------------------------------|

Bridge

e---------------------------------------------------------------------|
B---------------------------------------------------------------------|
G--4-x-4-x-4---7-x-7-x-7----------------------------------------------|
D--4-x-4-x-4---7-x-7-x-7--7-x-7-x-7--5-5-4----------------------------|
A--2-x-2-x-2---5-x-5-x-5--7-x-7-x-7--5-5-4----------------------------|
E-------------------------5-x-5-x-5--3-3-2----------------------------|

Outro

with verse chords
e---------------------------------------------------------------------|
B--9-7-9-7-10-8-10-8-12-10-12-10-14-12-14-12--------------------------|
G---------------------------------------------------------------------|
D---------------------------------------------------------------------|
A---------------------------------------------------------------------|
E---------------------------------------------------------------------|

any comments/corrections needed contact me, please rate
Comments