Major Accident - Schizophrenic Chords & Tabs

 

Schizophrenic Chords & Tabs

Major Accident Chords & Tabs

Version: 3 Type: Tab 0 ratings
1 star 2 stars 3 stars 4 stars 5 stars
comments

Schizophrenic Tab

-------------------------------------------------------------------------------
			     schizophrenic-MAJOR ACCIDENT
-------------------------------------------------------------------------------
Tabbed by:punkisdead2005
Email:orglory4oi@yahoo.com

Tuning:
INTRO
e|-------------------------|
B|-------------------------|
G|--10---------------------|
D|--10---a bunch of times--|
A|--8----------------------|
E|-------------------------|
[ Tab from: http://www.guitartabs.cc/tabs/m/major_accident/schizophrenic_tab_ver_3.html ]
e|---------------------------|
B|---------------------------|
G|---10 10 10 10 8 10 9 9 8 -|
D|---------------------------|
A|---------------------------|
E|---------------------------|
verse
e|-------------------------------------------------------------------------------------|
B|-------------------------------------------------------------------------------------|
G|--10 -----8--------------------------------------------------------------------------|
D|--10-x8---8-x8--8-----10-------------------------------------------------------------|
A|--8-------6-----8-x8--10-x8----------------------------------------------------------|
E|----------------6-----8--------------------------------------------------------------|
chorus
e|--------------------------------------------------|
B|--------------------------------------------------|
G|--8-8-------8-8-----------------------------------|
D|--8-8--8-8--8-8--8-8---13-13--12-12- 10-10-10-10--|
A|--6-6--8-8--6-6--8-8---11-11--10-10--8--8--8--8---|
E|-------6-6-------6-6------------------------------|

e|-----------------------------------------|
B|-----------------------------------------|
G|-----------------------------------------|
D|--8-8-------8-8-------8-8--5-5--5-5-5-5--|
A|--6-6--8-8--6-6--8-8--6-6--7-7--3-3-3-3--|
E|-------6-6-------6-6---------------------|


thats it have fun Oi!!
Comments