Major Accident - Schizophrenic Chords & Tabs

 

Schizophrenic Chords & Tabs

Major Accident Chords & Tabs

Version: 2 Type: Tab 0 ratings
1 star 2 stars 3 stars 4 stars 5 stars
comments

Schizophrenic Tab

Artist- Major Accident
Song- Schizophrenic

tabbed by jam9383@yahoo.com

Intro

e--------------3-3-2-----------------------------5-----5p4------------|
B--5-5-5-5-3-5---------x6--------5----5p3--------------------3p2h5----|
G---------------------------------------------------------------------|
D---------------------------------------------------------------------|
A---------------------------------------------------------------------|
E---------------------------------------------------------------------|

e---------------------------------------------------------------------|
B-----9--------7------------------------------------------------------|
G-----9--------7-------7--------9-------------------------------------|
D-----9--------7-------7--------9-------------------------------------|
A-----7--------5-------7--------9-------------------------------------|
E----------------------5--------7-------------------------------------|

Verse
[ Tab from: http://www.guitartabs.cc/tabs/m/major_accident/schizophrenic_tab_ver_2.html ]
e---------------------------------------------------------------------|
B--9-9-9-9-9-9-9-9-9-9--7-7-7-7-7-7-7-7-7-7---------------------------|
G--9-9-9-9-9-9-9-9-9-9--7-7-7-7-7-7-7-7-7-7-7-7-7-7-7-7-7-7-7-7-------|
D--9-9-9-9-9-9-9-9-9-9--7-7-7-7-7-7-7-7-7-7-7-7-7-7-7-7-7-7-7-7-------|
A--7-7-7-7-7-7-7-7-7-7--5-5-5-5-5-5-5-5-5-5-7-7-7-7-7-7-7-7-7-7-------|
E-------------------------------------------5-5-5-5-5-5-5-5-5-5-------|

e---------------------------------------------------------------------|
B---------------------------------------------------------------------|
G-9-9-9-9-9-9-9-9-9-9-------------------------------------------------|
D-9-9-9-9-9-9-9-9-9-9-------------------------------------------------|
A-9-9-9-9-9-9-9-9-9-9-------------------------------------------------|
E-7-7-7-7-7-7-7-7-7-7-------------------------------------------------|

Chorus

e-----------------------------------------------------------------------|
B-----------------------------------------------------------------------|
G--7-7-----7-7-----1212121111119-9-9-9-9--7-7-----7-7------6-6-6-6-6----|
D--7-7-7-7-7-7-7-7-1212121111119-9-9-9-9--7-7-7-7-7-7-7-7--6-6-6-6-6----|x2
A--5-5-7-7-5-5-7-7-1010109-9-9-7-7-7-7-7--5-5-7-7-5-5-7-7--4-4-4-4-4----|
E------5-5-----5-5----------------------------5-5-----5-5---------------|

e---------------------------------------------------------------------|
B---------------------------------------------------------------------|
G-9-9-9-9-9-9-9-9-9-9-------------------------------------------------|
D-9-9-9-9-9-9-9-9-9-9-------------------------------------------------|
A-7-7-7-7-7-7-7-7-7-7-------------------------------------------------|
E---------------------------------------------------------------------|


If any corrections are needed contact me please rate
Comments