Major Accident - Schizophrenic Chords & Tabs

 

Schizophrenic Chords & Tabs

Major Accident Chords & Tabs

Version: 1 Type: Tab 0 ratings
1 star 2 stars 3 stars 4 stars 5 stars
comments

Schizophrenic Tab

Major Accident
Schizophrenic
Tabbed by Noodles \"Sk8 Addicts\"
\"If you wanna Pit...You gotta listen to this song\"


Intro

E:-1-/-/-/-/-13-------------------\\--\\--\\--\\-5----|
A:-3-/-/-/-/-15--up down stroked--\\--\\--\\--\\-3----|
D:-3-/-/-/-/-15----------(hold)---\\--\\--\\--\\-3----|(hold)
G:----------------------------------------------------|
B:----------------------------------------------------|
E:----------------------------------------------------|

Sweet ass little Intro.....

E:-------------------------------------------|
A:-------------------------------------------|
D:-------------------------------------------|
G:-------------------------------------------| about 8 times.....listen to the song
B:-7-7-7-7--5-5------------------------------|
E:-----------------5-5---4-------------------|


Verse

E:-------------------------------------------|
A:-15--------13-------15---11--------9-------|
D:-15-X8-----13-X8----15---11-X8-----9-X8----| X4
G:-17--------15-------17---13--------11------|
B:-------------------------------------------|
E:-------------------------------------------|    Then....

Chorus

\"Schizo-phrenic, Oh! Oh! Oh!\".....
[ Tab from: http://www.guitartabs.cc/tabs/m/major_accident/schizophrenic_tab.html ]
E:------5---------5-------------------------------|
A:-5----7----5----7-----10-10-----9--9----7-7-7-7-|
D:-7----7----7----7-----12-12----11-11----9-9-9-9-|
G:-7---------7----------12-12----11-11----9-9-9-9-|
B:------------------------------------------------|
E:------------------------------------------------|  Pause for about 2 sec.  Then start the Verse

Verse

E:---------------------------------------------|
A:-15--------13-------15---11--------9---------|
D:-15-X8-----13-X8----15---11-X8-----9---------| X4
G:-17--------15-------17---13--------11--------|
B:---------------------------------------------|
E:---------------------------------------------|    Then....

Chorus

\"Schizo-phrenic, Oh! Oh! Oh!\".....

E:------5---------5-------------------------------|
A:-5----7----5----7-----10-10-----9--9----7-7-7-7-|
D:-7----7----7----7-----12-12----11-11----9-9-9-9-|
G:-7---------7----------12-12----11-11----9-9-9-9-|
B:------------------------------------------------|
E:------------------------------------------------| Pause for about 2 sec. then....well 
listen to the song

.........Listen to the song....You should be able to play it well.....if not let me know what's wrong...
This is my very first tab......so don't get mad if there's a mistake......SK8 And ConKer.........
........Are and Are................Sk8 Addicts & Co./;'/;'/;'/;'/my friend Jamel 
tabed the Bass tabs..
So check it out......
Comments