Major Accident - Fight To Win Chords & Tabs

 

Fight To Win Chords & Tabs

Major Accident Chords & Tabs

Version: 1 Type: Tab 0 ratings
1 star 2 stars 3 stars 4 stars 5 stars
comments

Fight To Win Tab

Band: Major Accident
Song: Fight to Win


tabbed by jam9383@yahoo.com


Intro

e--10-9-9-10-9-9-10-9-9-10-9-7-----10-9-9-10-9-9-10-9-9-10-9-7--------|
B---------------------------------------------------------------------|
G---------------------------------------------------------------------|
D---------------------------------------------------------------------|
A---------------------------------------------------------------------|
E---------------------------------------------------------------------|

Verse

e---------------------------------------------------------------------|
B---------------------------------------------------------------------|
G---7-------6-------4-----4----4--------------------------------------|
D---7-------6-------4-----4----4--------------------------------------|
A---5-------4-------2-----2----2--------------------------------------|
E---------------------------------------------------------------------|

Chorus
[ Tab from: http://www.guitartabs.cc/tabs/m/major_accident/fight_to_win_tab.html ]
e---------------------------------------------------------------------|
B---------------------------------------------------------------------|
G--5-x-7-x-4-x-4-x--5-x-7-x-4-x-4-x-----------------------------------|
D--5-x-7-x-4-x-4-x--5-x-7-x-4-x-4-x-----------------------------------|
A--3-x-5-x-2-x-2-x--3-x-5-x-2-x-2-x-----------------------------------|
E---------------------------------------------------------------------|

e--8-10-7-5-3-----8-10-7-5-3----8-10-7-5-3-----8-10-------------------|
B----------------------------------------------------8~---------------|
G---------------------------------------------------------------------|
D---------------------------------------------------------------------|
A---------------------------------------------------------------------|
E---------------------------------------------------------------------|

Solo

e----------------8-6-5-3-6-5----3-6----8-6-5-3-6~----6-5-3------------|
B--8-8-8-8-8---6-------------6-------6--------------------------------|
G---------------------------------------------------------------------|
D---------------------------------------------------------------------|
A---------------------------------------------------------------------|
E---------------------------------------------------------------------|

e-----8-6-5-3-6-5---3--6----8-6-5-3-6~---6-5-3\-----------------------|
B---6-------------6------6--------------------------------------------|
G---------------------------------------------------------------------|
D---------------------------------------------------------------------|
A---------------------------------------------------------------------|
E---------------------------------------------------------------------|

any comments/corrections needed contact me, please rate
Comments