Major Accident - Breakaway Chords & Tabs

 

Breakaway Chords & Tabs

Major Accident Chords & Tabs

Version: 1 Type: Tab 0 ratings
1 star 2 stars 3 stars 4 stars 5 stars
comments

Breakaway Tab

Artist- Major Accident
Song- Breakaway


tabbed by jam9383@yahoo.com


Intro/Bridge
e---------------------------------------------------------------------|
B---------------------------------------------------------------------|
G---7-----7----7-----4-----4-----4------------------------------------|
D---7-----7----7-----4-----4-----4------------------------------------|
A---5-----5----5-----2-----2-----2------------------------------------|
E---------------------------------------------------------------------|

Verse

e---------------------------------------------------------------------|
B---------------------------------------------------------------------|
G---7--------4------7-------4-----------------------------------------|
D---7--------4------7-------4-----------------------------------------|
A---5--------2------5-------2-----------------------------------------|
E---------------------------------------------------------------------|

Chorus
[ Tab from: http://www.guitartabs.cc/tabs/m/major_accident/breakaway_tab.html ]
e---------------------------------------------------------------------|
B---------------------------------------------------------------------|
G--7-7-7-7-7-7----4-4-4-4-4-4-----------------------------------------|
D--7-7-7-7-7-7----4-4-4-4-4-4-----------------------------------------|
A--5-5-5-5-5-5----2-2-2-2-2-2-----------------------------------------|
E---------------------------------------------------------------------|

Bridge

e---------------------------------------------------------------------|
B---------------------------------------------------------------------|
G------------9-9-9-9--------------------------------------------------|
D---9-9-9-9--9-9-9-9--5-5-5-5--7-7-7-7--------------------------------|
A---9-9-9-9--7-7-7-7--5-5-5-5--7-7-7-7--------------------------------|
E---7-7-7-7-----------3-3-3-3--5-5-5-5--------------------------------|

Outro

e---------------------------------------------------------------------|
B---------------------------------------------------------------------|
G--2--4--6--7--7-7-7--6--4-4-4--2------------2------------------------|
D--2--4--6--7--7-7-7--6--4-4-4--2--5-5-5--2--2------------------------|
A--0--2--4--5--5-5-5--4--2-2-2--0--5-5-5--2--0------------------------|
E----------------------------------3-3-3--0---------------------------|

any comments/corrections needed contact me, please rate
Comments