Maitre Gims - Jme Tire Chords & Tabs

 

Jme Tire Chords & Tabs

Maitre Gims Chords & Tabs

Version: 1 Type: Bass Tab 0 ratings
1 star 2 stars 3 stars 4 stars 5 stars
comments

Jme Tire Bass Tab

Easy to play, just listen to the song for timing.

Verse 1 :
G|---------11-13--|
D|----------------|
A|-4----7---------|
E|----------------|

G|------13-11-9-11----|
D|-----------------9--|
A|-4------------------|
E|--------------------|

G|---------9------|
D|-----------9----|
A|-4----7---------|
E|----------------|

G|---------11-13--|
D|----------------|X2
A|-4----7---------|
E|----------------|

G|------13-11-9-11----|
D|-----------------9--|
A|-4------------------|
E|--------------------|

G|----------------|
D|----------------|X2
A|-4----7---------|
E|--------7-------|

G|---------9------|
D|-----------9----|
A|-4----7---------|
E|----------------|

G|---------9------|
D|----------------|
A|-4----7---------|
E|----------------|

Chorus 1 :
[ Tab from: http://www.guitartabs.cc/tabs/m/maitre_gims/jme_tire_btab.html ]
G|-------------|
D|-------------|X5
A|-4--0--7-----|
E|---------7---|

G|--------------|
D|--------------|
A|-4--0--12/7---|
E|------------7-|


Verse 2
(same as Verse 1)
Chorus 2
(same as Chorus 1)

Bridge :

G|---------11-13--|
D|----------------|
A|-4----7---------|
E|----------------|

G|------13-11-9-11----|
D|-----------------9--|
A|-4------------------|
E|--------------------|

G|---------9------|
D|-----------9----|
A|-4----7---------|
E|----------------|

G|---------9------|
D|----------------|
A|-4----7---------|
E|----------------|

Chorus 3 :

G|-------------|
D|-------------|X5
A|-4--0--7-----|
E|---------7---|

G|--------------|
D|--------------|
A|-4--0--12/7---|
E|------------7-|

G|-------------|
D|-------------| 'till the end
A|-4--0--7-----|
E|---------7---|

Enjoy
Comments