Mago De Oz - Satania Chords & Tabs

 

Satania Chords & Tabs

Mago De Oz Chords & Tabs

Version: 1 Type: Tab 0 ratings
1 star 2 stars 3 stars 4 stars 5 stars
comments

Satania Tab

   
#--------------------------------Guitar Tab------------------------------------#
#                           M├Ągo de Oz - Satania                               #
#                            Tabbed By XaViMei                                 #
#                           XaViMei@hotmail.com                                #
#------------------------------------------------------------------------------#


     E     B     G     D     C     A     
|---------------------------------------|
|---------------------------------------|
|----9-----4-----------7-----5----------|
|----9-----4-----5-----7-----5-----7----|
|----7-----2-----5-----5-----3-----7----|
|----------------3-----------------5----|

* play this note 8 or 10 times

(intro)
e:--------------------------------------------------------------------|
B:--------------------------------------------------------------------|
G:---9*--9*--9*--7---4---12---9---------------------------------------|
D:---9---9---9---7---4---12---9---------------------------------------|
A:---7---7---7---5---2---10---7---------------------------------------|
E:--------------------------------------------------------------------|
  
(pre-verse with violin) 
e:--------------------------------------------------------------------|(0:08)
B:--------------------------------------------------------------------|
G:-------7---9-------7---4-------7---9---4---5-------------------7----|
D:---5---7---9---5---7---4---5---7---9---4---5---5---7---7---7---7----|
A:---5---5---7---5---5---2---5---5---7---2---3---5---7---7---7---5----|
E:---3-----------3-----------3-------------------3---5---5---5--------|

e:--------------------------------------------------------------------|(0:20)
B:--------------------------------------------------------------------|
G:-------7---9-------7---4-------7---9-------7---4*-------------------|
D:---5---7---9---5---7---4---5---7---9---5---7---4--------------------|
A:---5---5---7---5---5---2---5---5---7---5---5---2--------------------|
E:---3-----------3-----------3-----------3----------------------------|

(verse)
e:--------------------------------------------------------------------|(0:32)
B:--------------------------------------------------------------------|
G:---7---9---7---9---7---9---7---9---7---9---7---9-------4------------|
D:---7---9---7---9---7---9---7---9---7---9---7---9---7---4------------|
A:---5---7---5---7---5---7---5---7---5---7---5---7---7---2------------|
E:---------------------------------------------------5----------------|

(pre-chorus)
e:--------------------------------------------------------------------|(0:44)
B:----------10--8--7---------------2h5h2h5h2----------10--8--7--------|
G:---9*--7------------7----9*--7---------------9*--7------------7-----|
D:---9---7-----------------9---7---------------9---7------------------|
A:---7---5-----------------7---5---------------7---5------------------|
E:--------------------------------------------------------------------|

e:--------------------------------------------------------------------|
B:--------------------------------------------------------------------|
G:---4---4---4---4---4---4---9----------------------------------------|
D:---4---4---4---4---4---4---9---9------------------------------------|
A:---2---2---2---2---2---2---7---9------------------------------------|
E:-------------------------------7------------------------------------|

(guitar solo) then..

(2nd verse)
e:--------------------------------------------------------------------|(1:10)
B:--------------------------------------------------------------------|
G:---7---9---7---9---7---9---7---9---7---9---7---9---7---9-------4----|
D:---7---9---7---9---7---9---7---9---7---9---7---9---7---9---7---4----|
A:---5---7---5---7---5---7---5---7---5---7---5---7---5---7---7---2----|
E:-----------------------------------------------------------5--------|

(2nd pre-chorus)
e:--------------------------------------------------------------------|(1:23)
B:----------10--8--7---------------2h5h2h5h2----------10--8--7--------|
G:---9*--7------------7----9*--7---------------9*--7------------7-----|
D:---9---7-----------------9---7---------------9---7------------------|
A:---7---5-----------------7---5---------------7---5------------------|
E:--------------------------------------------------------------------|

e:--------------------------------------------------------------------|
B:--------------------------------------------------------------------|
G:---4---4---4---4---4---4---9----------------------------------------|
D:---4---4---4---4---4---4---9---9------------------------------------|
A:---2---2---2---2---2---2---7---9------------------------------------|
E:-------------------------------7------------------------------------|

(chorus) (x2)
e:--------------------------------------------------------------------|(1:35)
B:--------------------------------------------------------------------|
G:---9----------------------------------------------------------------|
D:---9---9---10---9---10---9------------------------------------------|
A:---7---9---10---9---10---9---2--------------------------------------|
E:-------7---8----7---8----7------5--3--2--0--------------------------|

(pre-verse with violin)
e:--------------------------------------------------------------------|(1:47)
B:--------------------------------------------------------------------|
G:-------7---9-------7---4-------7---9-------7---4*-------------------|
D:---5---7---9---5---7---4---5---7---9---5---7---4--------------------|
A:---5---5---7---5---5---2---5---5---7---5---5---2--------------------|
E:---3-----------3-----------3-----------3----------------------------|

(verse modified)
e:--------------------------------------------------------------------|(1:59)
B:--------------------------------------------------------------------|
G:-7/9*--7/9*--7/9*--7/9*--7---99---7---99---7---99---7---99---7---99-|
D:-7/9---7/9---7/9---7/9---7---99---7---99---7---99---7---99---7---99-|
A:-5/7---5/7---5/7---5/7---5---77---5---77---5---77---5---77---5---77-|
E:--------------------------------------------------------------------|

e:--------------------------------------------------------------------|
B:--------------------------------------------------------------------|
G:---7---99---7---9-------4-------------------------------------------|
D:---7---99---7---9---7---4-------------------------------------------|
A:---5---77---5---7---7---2-------------------------------------------|
E:--------------------5-----------------------------------------------|
[ Tab from: http://www.guitartabs.cc/tabs/m/mago_de_oz/satania_tab.html ]
(chorus more slowly) (x2)
e:--------------------------------------------------------------------|(2:23)
B:--------------------------------------------------------------------|
G:---9----------------------------------------------------------------|
D:---9---9---10---9---10---9------------------------------------------|
A:---7---9---10---9---10---9---2--------------------------------------|
E:-------7---8----7---8----7------5--3--2--0--------------------------|

(bass solo)

(1rst guitar)
e|--------------------------------------------------------------------|(3:11)
B|---8---5---7---7^8---7----------------------------------------------|

(2nd guitar)
B|---5-------3---3^5---3----------------------------------------------|(3:24)
G|-------4------------------------------------------------------------|

(pre-solo) 
G|4-------4-------4-5-4---2-------2-------2-4-2--5-------5-------5-7-5|(4:19)
D|--5-2-5---5-2-5-----------4---4---4---4----------7-4-7---7-4-7------|
A|----------------------------5-------5-------------------------------|

(you have to listen the song to get the combination of this 3 tabs)
e:--------------------------------------------------------------------|(4:30)
B:--------------------------------------------------------------------|
G:---7-------9--------------------------------------------------------|
D:---7---9---9--------------------------------------------------------|
A:---5---9---7--------------------------------------------------------|
E:-------7------------------------------------------------------------|

(pre-solo)
e:--------------------------------------------------------------------|(4:59)
B:--------------------------------------------------------------------|
G:---7-------9---9*--9---7---9*--9*--9---7---9*-----------------------|
D:---7---9---9---9---9---7---9---9---9---7---9------------------------|
A:---5---9---7---7---7---5---7---7---7---5---7------------------------|
E:-------7------------------------------------------------------------|

(During solo)
e:--------------------------------------------------------------------|(5:06)
B:--------------------------------------------------------------------|
G:---9---7---9-------5---7---7------9---7---9---5-------7---7---------|
D:---9---7---9---7---5---7---7------9---7---9---5---5---7---7---------|
A:---7---5---7---7---3---5---5------7---5---7---3---5---5---5---------|
E:---------------5----------------------------------7-----------------|

e:--------------------------------------------------------------------|(5:19)
B:--------------------------------------------------------------------|
G:---9---5---4-----9*---7---99---7---99---7---99---7---99---7---99----|
D:---9---5---4-----9----7---99---7---99---7---99---7---99---7---99----|
A:---7---3---2-----7----5---77---5---77---5---77---5---77---5---77----|
E:--------------------------------------------------------------------|

(cont.)
e:--------------------------------------------------------------------|
B:--------------------------------------------------------------------|
G:---7---99---7---9-------4-------------------------------------------|
D:---7---99---7---9---7---4-------------------------------------------|
A:---5---77---5---7---7---2-------------------------------------------|
E:--------------------5-----------------------------------------------|

e:--------------------------------------------------------------------|(5:33)
B:--------------------------------------------------------------------|
G:---9---7---9-------7------------------------------------------------|
D:---9---7---9---7---7------------------------------------------------|
A:---7---5---7---7---5------------------------------------------------|
E:---------------5----------------------------------------------------|

(you have to listen the song to get the combination of this tabs)
e:--------------------------------------------------------------------|(5:57)
B:--------------------------------------------------------------------|
G:---9*--7---9*--5-------77-------------------------------------------|
D:---9---7---9---5---7---77-------------------------------------------|
A:---7---5---7---3---7---55-------------------------------------------|
E:-------------------5------------------------------------------------|

(with violin)(x2)
e:--------------------------------------------------------------------|(6:22)
B:--------------------------------------------------------------------|
G:--7---9---7---9---7---9---7---9---7---9---7---9---7---9---5-------7-|
D:--7---9---7---9---7---9---7---9---7---9---7---9---7---9---5---7---7-|
A:--5---7---5---7---5---7---5---7---5---7---5---7---5---7---3---7---5-|
E:--------------------------------------------------------------5-----|

e:--------------------------------------------------------------------|(6:57)
B:--------------------------------------------------------------------|
G:---9*--9---7---9*--9*--9---7----------------------------------------|
D:---9---9---7---9---9---9---7----------------------------------------|
A:---7---7---5---7---7---7---5----------------------------------------|
E:--------------------------------------------------------------------|

(3rd verse)
e:--------------------------------------------------------------------|(7:02)
B:----------10--8--7---------------2h5h2h5h2----------10--8--7--------|
G:---9*--7------------7----9*--7---------------9*--7------------7-----|
D:---9---7-----------------9---7---------------9---7------------------|
A:---7---5-----------------7---5---------------7---5------------------|
E:--------------------------------------------------------------------|

e:--------------------------------------------------------------------|
B:--------------------------------------------------------------------|
G:---4---4---4---4---4---4---9----------------------------------------|
D:---4---4---4---4---4---4---9---9------------------------------------|
A:---2---2---2---2---2---2---7---9------------------------------------|
E:-------------------------------7------------------------------------|

(chorus) (x4)
e:--------------------------------------------------------------------|(7:14)
B:--------------------------------------------------------------------|
G:---9----------------------------------------------------------------|
D:---9---9---10---9---10---9------------------------------------------|
A:---7---9---10---9---10---9---2--------------------------------------|
E:-------7---8----7---8----7------5--3--2--0--------------------------|

(post-chorus with violin) (play this slowly)
e:--------------------------------------------------------------------|(7:40)
B:--------------------------------------------------------------------|
G:-------7---9-------7---4-------7---9---4---5-----------7---7----9*--|
D:---5---7---9---5---7---4---5---7---9---4---5---5---7---7---7----9---|
A:---5---5---7---5---5---2---5---5---7---2---3---5---7---5---5----7---|
E:---3-----------3-----------3-------------------3---5----------------|
 
Comments