Mago De Oz - Pensando En Ti Chords & Tabs

 

Pensando En Ti Chords & Tabs

Mago De Oz Chords & Tabs

Version: 2 Type: Tab 0 ratings
1 star 2 stars 3 stars 4 stars 5 stars
comments

Pensando En Ti Tab

THIS IS A VERY ACCURATE VERSION OF THE SOLO
WHICH I HAVENT SEEN IN ANY OTHER WEBSITE

ITS LIKE THIS:


E-12---10--------10----------------------------------------------------------|
G--------13-12-13----13-12-10-12-13-12-10-13-12-13-12-10---10----9-7-9-------|
B--------------------------------------------------------12--12--------------|
D----------------------------------------------------------------------------|
A----------------------------------------------------------------------------|
E----------------------------------------------------------------------------|

E-10---------10--------------------------------------------10-12-10-12-------|
G----13-12-13------13-12-10-12-13--12-10-12-13-12-10-12-13-------------------|
B----------------------------------------------------------------------------|
D----------------------------------------------------------------------------|
A----------------------------------------------------------------------------|
E----------------------------------------------------------------------------|
[ Tab from: http://www.guitartabs.cc/tabs/m/mago_de_oz/pensando_en_ti_tab_ver_2.html ]
E-13-15------15-17--13-15-13-12-13-12-10-12-10-8-10-8-7-8-7-5----------------|
B----------------------------------------------------------------------------|
G----------------------------------------------------------------------------|
D----------------------------------------------------------------------------|
A----------------------------------------------------------------------------|
E----------------------------------------------------------------------------|


THIS TIME SLOWER
E----------------------------10-12-10-12-13-15-------15-17-------------------|
B-12-13-12-13-12-10-12-13----------------------------------------------------|
G----------------------------------------------------------------------------|
D----------------------------------------------------------------------------|
A----------------------------------------------------------------------------|
E----------------------------------------------------------------------------|

E13-15-13-12-13-12-10-12-10-8-10-8-7-8-7-5-----------------------------------|
B----------------------------------------------------------------------------|
G----------------------------------------------------------------------------|
D----------------------------------------------------------------------------|
A----------------------------------------------------------------------------|
E----------------------------------------------------------------------------|

THATS IT

ITS VERY EASY
Comments