Mago De Oz - Ms Que Una Intencin Chords & Tabs

 

Ms Que Una Intencin Chords & Tabs

Mago De Oz Chords & Tabs

Version: 1 Type: Tab 0 ratings
1 star 2 stars 3 stars 4 stars 5 stars
comments

Ms Que Una Intencin Tab

   
Tabbed by Jon Jenkins. 
Questions? Comments? Concerns? Criticisms? Corrections?
Email me: urbanconfederate@comcast.net

I'm astounded by the lack of Mago de Oz tabs on the internet. I hope to chage that.
This song has a rather interesting chord progression. It's not particularly difficult,
though. 

Most guitarists should be able to piece it together just knowing the following riff.


Intro Riff
  F#              C#               D                 E       F                8x
|------------------------------------------------------------------------||
|-------9-10-9--------------9-----------------9------10-9----12-10-9----o||
|----11--------11-9----9-11---11-9-11----9-11---11-9------11---------11--||
|-11----------------11----------------11---------------------------------||
|-----------------------------------------------------------------------o||
|------------------------------------------------------------------------||

[ Tab from: http://www.guitartabs.cc/tabs/m/mago_de_oz/ms_que_una_intencin_tab.html ]
|-----------------------------------------------------------------|
|-----------------------------------------------------------------|
|-11--11----------7--7--9-----------------------9--9--9--9--9--9--|
|-11--11--11--11--7--7--9-----------------------9--9--9--9--9--9--|
|--9---9--11--11--5--5--6--9--11--12------------7--7--7--7--7--7--|
|---------9---9----------------------9--9--10---------------------|


The same chord progression repeats throughout most of the song, except the prechorus. Fifth 
chords or barre chords sound good, but stick with the fifths if you want that true metal 

sound. I have no idea how to even begin tabbing out the solo, just improvise with the F# 

minor scale, that seems to sound pretty good.

F#       C# 
Ahora te veo ahí
D          E     F     F#
y me das miedo una vez más
           C#         D
siento que tú me miras
         E   F     F#
a veces dudo si me ves
         C#              D
no importa, ahora da igual
           E  F  F#
estoy pensando en mí
        C#            D
que puedo hacer por ti
              E  F F#
intenta pasarlo bien


B               A            G          E D
no voy a construir un himno con mi voz, no...
B           A       G
ya lo intente una y otra vez
  E
y me perdí

Comments