Mago De Oz - Molinos De Viento Chords & Tabs

 

Molinos De Viento Chords & Tabs

Mago De Oz Chords & Tabs

Version: 6 Type: Tab

Molinos De Viento Tab

mago de oz                                             tabbed by:black
molinos de viento solo(intro)
i think its 100% right!atleast better than the other ones

guitar1 plays this once by itself then again with guitar2(after pause)
e|-----------------------------------------------------------------|
B|--12121212-------------------------------------------------------|
G|-----------14-12-----12-14-12------------------------------------|
D|------------------16-----------16-14-----------------------------|
A|-----------------------------------------------------------------|
E|-----------------------------------------------------------------|

e|--------------------------------|
B|--12121212----------------------|
G|-----------14-12-----12---------|
D|------------------16----16-14^--|
A|--------------------------------|
E|--------------------------------|
[ Tab from: http://www.guitartabs.cc/tabs/m/mago_de_oz/molinos_de_viento_tab_ver_6.html ]
e|--------------------------------------------------------------------|
B|--12121212----------------------------------------------------------|
G|-----------14-12-----12-14-12-----------------12-14-12---12---------|
D|------------------16-----------16-14--12h14h16----------16--16-14---|
A|--------------------------------------------------------------------|
E|--------------------------------------------------------------------|
 (pause)
then guitar2 joins p;aying this.
e|--10101010-8----------8-----------10101010-8----------------|
B|-------------11-10-11---11-10-8--------------10-11-10-11--8~|
G|------------------------------------------------------------|
D|------------------------------------------------------------|
A|------------------------------------------------------------|
E|------------------------------------------------------------|


e|--10101010-8----------8---------------------------------------|
B|-------------11-10-11---11-10-------------11-13-11--11--------|
G|-----------------------------12--10h12h14----------14--14-12--|
D|--------------------------------------------------------------|
A|--------------------------------------------------------------|
E|--------------------------------------------------------------|

thats the intro once i get the rest ill post it up....