Mago De Oz - Molinos De Viento Chords & Tabs

 

Molinos De Viento Chords & Tabs

Mago De Oz Chords & Tabs

Version: 3 Type: Tab 0 ratings
1 star 2 stars 3 stars 4 stars 5 stars
comments

Molinos De Viento Tab

[----Enjoy. At any questions please contact me fallen_blink@hotmail.com----]
[----------------------------Molinos De Viento-----------------------------]
Intro:
-12-15-15-15-14h-15-17-15-14h-15-15-15-------------]
---------------------------------------------------]
---------------------------------------------------]
---------------------------------------------------]
---------------------------------------------------]
---------------------------------------------------]
[ Tab from: http://www.guitartabs.cc/tabs/m/mago_de_oz/molinos_de_viento_tab_ver_3.html ]
-12-15-15-15-14h-15-17-15-14h-15-15-15-------------]
---------------------------------------------------]
---------------------------------------------------]
---------------------------------------------------]
---------------------------------------------------]
---------------------------------------------------]

-12-14-14-14-12-14-17-14-12-14-14-14---------------]
---------------------------------------------------]
---------------------------------------------------]
---------------------------------------------------]
---------------------------------------------------]
---------------------------------------------------]

-------12-15----------14-17------------------------]
-13-13----------15-15------------------------------]
---------------------------------------------------]
---------------------------------------------------]
---------------------------------------------------]
---------------------------------------------------]

Do this tablature, then repeat it again.
Comments