Mago De Oz - Molinos De Viento Chords & Tabs

 

Molinos De Viento Chords & Tabs

Mago De Oz Chords & Tabs

Version: 2 Type: Tab 0 ratings
1 star 2 stars 3 stars 4 stars 5 stars
comments

Molinos De Viento Tab

Enjoy!

-------------------------------------------------------------------------|
---12--12--12--12--10--------------10------------------------------------|
-----------------------12--11--12------12--11--9-------------------------|
-------------------------------------------------------------------------|
-------------------------------------------------------------------------|
-------------------------------------------------------------------------|
[ Tab from: http://www.guitartabs.cc/tabs/m/mago_de_oz/molinos_de_viento_tab_ver_2.html ]
-------------------------------------------------------------------------|
---12--12--12--12--10----------------------------------------------------|
-----------------------12--11--12--11--9---------------------------------|
-------------------------------------------------------------------------|
-------------------------------------------------------------------------|
-------------------------------------------------------------------------|

-------------------------------------------------------------------------|
---12--12--12--12--10--------------10------------------------------------|
-----------------------12--11--12------12--11--9-------------------------|
-------------------------------------------------------------------------|
-------------------------------------------------------------------------|
-------------------------------------------------------------------------|

-------------------------------------------------------------------------|
---------------8h10p8----------------------------------------------------|
---7--9--11------------9h11--7--9----------------------------------------|
-------------------------------------------------------------------------|
-------------------------------------------------------------------------|
-------------------------------------------------------------------------|
Comments