Mago De Oz - Molinos De Viento Chords & Tabs

 

Molinos De Viento Chords & Tabs

Mago De Oz Chords & Tabs

Version: 1 Type: Tab 0 ratings
1 star 2 stars 3 stars 4 stars 5 stars
comments

Molinos De Viento Tab

   
I V Á N  B A R R E R A  L I C H T
    gunnerslash@hotmail.com

                  M A G O  D E  O Z
         " M o l i n o s  d e  v i e n t o "


INTRO (Parte violines)
e|--12/15-15-15-15-17-15-14-15-12-15-15-15-17-15-14-15-|
B|-----------------------------------------------------|
G|-----------------------------------------------------|
D|-----------------------------------------------------|
A|-----------------------------------------------------|
E|-----------------------------------------------------|

e|--12/14-14-14-14-17-14-12-14--------12-15-------14-17-|
B|------------------------------13-13-------15-15-------|
G|------------------------------------------------------|
D|------------------------------------------------------|
A|------------------------------------------------------|
E|------------------------------------------------------|

e|--12/15-15-15-15-17-15-14-15-12-15-15-15-17-15-14-15-|
B|-----------------------------------------------------|
G|-----------------------------------------------------|
D|-----------------------------------------------------|
A|-----------------------------------------------------|
E|-----------------------------------------------------|

e|--12/14-14-14-14-17-14-12-14--------12-15-------14-17-|
B|------------------------------13-13-------15-15-------|
G|------------------------------------------------------|
D|------------------------------------------------------|
A|------------------------------------------------------|
E|------------------------------------------------------|

e|------------------------------------------------|
B|-8---8---8----7h8h10--7----5h7h8-5-7-8----------|
G|---9---9---9------------7-----------------------|
2 VECES

e|-7---7---7---7h8h10-------5h7h9--5-7-9-----------|
B|--8---8---8-----------10-8-----------------------|
2 veces

Bebe, canta, sueña...
e|------------------------------------------------|
B|-8---8---8----7h8h10--7----5h7h8-5-7-8----------|
G|---9---9---9------------7-----------------------|
2 veces

e|-7---7---7---7h8h10-------5h7h9--5-7-9----------|
B--8---8---8-----------10-8-----------------------|
[ Tab from: http://www.guitartabs.cc/tabs/m/mago_de_oz/molinos_de_viento_tab.html ]
Que de tu vida
e|---5--6--5--8--6--5-------|
B|--------------------------|
G|--------------------------|
A|--------------------------|
D|--------------------------|
E|--------------------------|
tu seas amigo el único actor...
e|-4--6--4---2--4--2---1--3--1----------------------1----|
B|------------------------------3--5--3----1--3--1-------|
G|-------------------------------------------------------|
A|-------------------------------------------------------|
D|-------------------------------------------------------|
E|-------------------------------------------------------|

Parte que tocan los violines...
e|--6--6--6--7--6--8--6--7--6--7--6--4----------|
B|----------------------------------------------|
G|----------------------------------------------|
A|----------------------------------------------|
D|----------------------------------------------|
E|----------------------------------------------|

e|--6—6---6--7--6--8--6--7--6--7--6—2-------------------|
B|------------------------------------------------------|
G|------------------------------------------------------|
A|------------------------------------------------------|
D|------------------------------------------------------|
E|------------------------------------------------------|


e|----------------------------------------------|
B|-6--6--6--7--6--8--6--7--6--7--6--4-----------|
G|----------------------------------------------|
A|----------------------------------------------|
D|----------------------------------------------|
E|----------------------------------------------|

e|-----------------4-|-----------------6----------------|
B|---4--4--4—5/6-----|-5--5--5--6/7---------------------|
G|-------------------|----------------------------------|
A|-------------------|----------------------------------|
D|-------------------|----------------------------------|
E|-------------------|----------------------------------|

Guitarra acústica...
e|-6--6--6--6--4--4--4--6--4---------------------------|
B|---------------------------------7--6--4-------------|
G|-----------------------------------------------------|
A|-----------------------------------------------------|
D|-----------------------------------------------------|
E|-----------------------------------------------------|

e|6--6--6--6--4--4--4--6--4--------------------|
B|---------------------------------6-----------|
G|---------------------------------------------|
A|---------------------------------------------|
D|---------------------------------------------|
E|---------------------------------------------|

e|-6--6--6--6--4--4--4--6—4------------------------|
B|--------------------------------7--6—4-----------|
G|-------------------------------------------------|
A|-------------------------------------------------|
D|-------------------------------------------------|
E|-------------------------------------------------|


e|-----------4--------------------------------------|
B|-4--5--4----7--5--4--5--4--2----------------------|
G|--------------------------------------------------|
A|--------------------------------------------------|
D|--------------------------------------------------|
E|--------------------------------------------------|
Se repite con las 2 guitarras...

gunnerslash@hotmail.com
Comments