Mago De Oz - La Conquista Chords & Tabs

 

La Conquista Chords & Tabs

Mago De Oz Chords & Tabs

Version: 1 Type: Tab 0 ratings
1 star 2 stars 3 stars 4 stars 5 stars
comments

La Conquista Tab

   
[ _ [ guitarra ] _ ]

 introduccion  (2da gtr::A  G  F  F-G-A-B-C-B A  G  F  F-G-A-B-C-E)
                                   x3
------------------------------------|-------------------
------------------------------------|-------------------
------------7-----9-----10---9-7----|-------------------
-7-7-10-7-9-----7-----7----------10-|--------7--9--10-9-
------------------------------------|-8--10-------------
------------------------------------|-------------------

                                   x3
------------------------------------|-------------------
------------------------------------|-------------------
------------7-----9-----10---9-7----|-------------------
-7-7-10-7-9-----7-----7----------10-|--------7--9--10---
------------------------------------|-8--10-----------7-
------------------------------------|-------------------

 riff A
-------------------------------------------------------
-------------------------------------------------------
-------------------------------------------------------
---------0-2-3---------2-3-5---------2-3-5-------------
-3-x-x-x-------1-x-x-x-------5-x-x-x-------5-x-x-x-x-x-
-1-x-x-x-------3-x-x-x-------3-x-x-x-------3-x-x-x-x-x-
              x2
---------------|---------------
---------------|---------------
---------------|---------------
-5-5-5-5--4----|-7-7-7-7--5-4--
-3-3-3-3--2-5--|-5-5-5-5--3-2--
------------3--|---------------

 verso (la 2da vez con palm muting)
--------------------------------------------------------
--------------------------------------------------------
--------------------------------------------------------
---------------------------------------------|-7--7-5---| <- [se toca la]
-7-----5-----5-----7-----7-----5-----5-----7-|--------7-|    [1era vez  ]
-5-----3-----3-----5-----5-----3-----3-----5------------
El viento se desperto levantando al dios del mal
mientras bostezaba el sol el horizonte se desvelo
Deslumbraban cierto aire sensual la costa y el litoral
dejando que la niebla a sus pies crei ver el jardin del Edén


 verso especial
--------------------------------------------------------
--------------------------------------------------------
----------------9-7-10-9--------------------------------
-5-----7-----9--9-7-10-9-5-----7-----9-9-9-9-9-9-9-9----
-3-----5-----7-----------3-----5-----7-7-7-7-7-7-7-7----
--------------------------------------------------------
Y al pisar tierra firme vi llegar
a unas gentes que al ver nuestras ropas ya no sabian que hacer


-se repite introduccion 2da parte


-se repite verso
Hemos venido a cambiar vuestros sueños por la fe
vuestro oro por tener un dios y un rey a quien seguir
Guerra muerte destruccion, nuestro himno que valor
al soldado y al señor la conquista le exito

-se repite verso especial
Y aunque nunca nunca quise ser como el
pedire que nunca mas se conquiste a tu pueblo jamas

[ Tab from: http://www.guitartabs.cc/tabs/m/mago_de_oz/la_conquista_tab.html ]
 coro
--------------------------------------------------------
--------------------------------------------------------
--------------------------------------------------------
------------7-------------------------------------------
-7-x-x-x-5--5--7--7-x-x-x-x-x-x-x-x-x-x-x-|-5~----------
-5-x-x-x-3-----5--5-x-x-x-x-x-x-x-x-x-x-x-|-3~----------
quiero pedir perdon y conquistar tu corazon
quiero pedir perdon

-------------------------------------------------
-------------------------------------------------
-------------------------------------------------
-------------------------------------------------
-5-5-5-5-5-5---5---5-5-5-5-5-5---5---5-5-5-5-5-5-
-3-3-3-3-3-3---3---3-3-3-3-3-3---3---3-3-3-3-3-3-
en una batalla las primeras bajas son la justicia y el amor


-se repite introduccion 2da parte

El solo no lo pude sacar ( no tengo buen oido ) 
 durante el solo (x4)
----------------------------------------------
----------------------------------------------
---------------------------------------------- * la 4ta vez este acorde es
-3-----------3------3-5---3-------------------   cambiado por C (x35xxx)
-1--5--------1--5*--1-3---1--5-x-x-x-x-x-x-x--
----3-----------3------------3-x-x-x-x-x-x-x--

-.-=*SOLO 2*=-._
 riff B (2da gtr::A A F G)
-------------10-------------------------------12--10-------------
-13---12-13------13--12-13--10----13---12-13----------13-12--10--
-----------------------------------------------------------------  x2
-----------------------------------------------------------------
-----------------------------------------------------------------
-----------------------------------------------------------------

 _.-=*SOLO 3*=-.__

---------------------------------------
-13--13-12-10-12--13----10-12-13-12-10-
---------------------12----------------
{10--10--9--7--9--10-----7--9-10--9--7} <- 2da gtr.
{--------------------10---------------}
--------------------------------------- \
                                         > x2
---------------------12-10------------- /
-13--13-12-10-12--13-------13-12-13-10-
{---------------------9--7------------} <- 2da gtr.
{10--10--9--7--9--10-------10--9-10--7}
---------------------------------------
---------------------------------------

-----------------------------------------------
-13-13-13-13-12----10---13-13-13-13-12----10---
----------------12---------------------12------
{10-10-10-10--9-----7---10-10-10-10--9-----7--} <- 2da gtr.
{---------------10---------------------10-----}
----------------------------------------------- \
                                                 > x2
-12-12-12-12-10----10---10-10-10-10------------ /
----------------13------------------13-12-10---
{-9--9--9--9--7-----7----7--7--7--7-----------} <- 2da gtr.
{---------------10------------------10--9--7--}
-----------------------------------------------
-----------------------------------------------


-se repite verso especial
Y aunque nunca nunca quise ser como el
pedire que nunca mas se conquiste a tu pueblo jamas


-coro (se repite la primera parte)
quiero pedir perdon y conquistar tu corazon
quiero pedir perdon
y a ti te hablo hoy cuida y ama tu tradicion
hoy quiero tu perdon
si tu tierra amas no dejes por nada de cuidarla por favor


-se repite introduccion 2da parte (la ultima parte se repite 4 veces)


 outro
-----------------------------------------------
-----------------------------------------------
-----------------------------------------------
-----------------------------------------------
-7-7-5-7--7-7-5-7-------5~---------------------
-5-5-3-5--5-5-3-5-.....-3~---------------------

  Para comentarios y opiniones enviar un mensaje a: 
    javitoooes@hotmail.com
Comments