Mago De Oz - El Cantar De La Luna Oscura Chords & Tabs

 

El Cantar De La Luna Oscura Chords & Tabs

Mago De Oz Chords & Tabs

Version: 2 Type: Tab 0 ratings
1 star 2 stars 3 stars 4 stars 5 stars
comments

El Cantar De La Luna Oscura Tab

Solo de guitarra electrica (3:14)completo!!   ;)

E|--------------------------------------10h13-12-10-12~--/15-15~---
B|--10-------------------------------10----------------------------
G|-----12-10-9-------10-----------10-------------------------------
D|-------------12~-----<12>\---12----------------------------------
A|-----------------------------------------------------------------
E|-----------------------------------------------------------------
[ Tab from: http://www.guitartabs.cc/tabs/m/mago_de_oz/el_cantar_de_la_luna_oscura_tab_ver_2.html ]
-15h17-17-17-15-13-15h17p15----13h15p13-------------------------------------
----------------------------17----------17-15~---13--11--10---10-11-13-11-10
------------------------------------------------------------12--------------
----------------------------------------------------------------------------
----------------------------------------------------------------------------
----------------------------------------------------------------------------

-----------10-12-13-12-10----------13-15-17-15-13----13-15-13----13----------
----10-11-13---------------13-15-17----------------17---------17----17-15-13-
-12--------------------------------------------------------------------------
-----------------------------------------------------------------------------
-----------------------------------------------------------------------------
-----------------------------------------------------------------------------

---------13--------------------------------------------------|
---15-17----17-15-13----------------13-15-17-15-15~----15\---|
---------------------15-14-12-14-15--------------------------|
-------------------------------------------------------------|
-------------------------------------------------------------|
-------------------------------------------------------------|

colaboracion de "El Ruejga"
e-mail: danny_r4@hotmail.com
Comments