Magnum - Rockin Chair Chords & Tabs

 

Rockin Chair Chords & Tabs

Magnum Chords & Tabs

Version: 1 Type: Tab 0 ratings
1 star 2 stars 3 stars 4 stars 5 stars
comments

Rockin Chair Tab

                         Magnum / Rockin chair 

                   (transcribed in a hurry by mEeK)

                                                                               
E||-------|--------|-------|------------|-------|------|----------------------|
B||-------|--------|-------|------------|-------|------|----------------------|
G||--7----|--10----|--5----|------------|--7/---|------|--5h---7----7----7----|
D||--7----|--10----|--5----|--3/---5----|--7/---|------|--5h---7----7----7----|
A||--5----|--8-----|--3----|--3/---5----|--5/---|------|--5----5----5----5----|
E||-------|--------|-------|--1/---3----|-------|------|----------------------|


                                                                               
-----------------|----------------------|----------------------|-------|------|
-----------------|----------------------|----------------------|-------|------|
--7----5----7----|--5h---7----7----7----|--7----5----7----5----|--7----|------|
--7----5----7----|--5h---7----7----7----|--7----5----7----5----|--7----|------|
--5----5----5----|--5----5----5----5----|--5----5----5----5----|--5----|------|
-----------------|----------------------|----------------------|-------|------|

Accurate up and down strokes and mutes is important to get the  "riff sound", but 
i have no time to tab that for u - I have no idea by the way :)
                                                                     
----------------------|----------------------|----------------------|
--8~---6~---6~---5~---|----------------------|----------------------|
--7~---5~---5~---5~---|----------------------|--5~--------7---------|
----------------------|----------------------|--5~---5~---7----5----|
----------------------|------------3/---5----|--3~---5~---5----5----|
----------------------|--3/---1--------------|-------3~-------------|


                                                           
----------------------|-----------------|-----------------|
----------------------|-----------------|-----------------|
--7---------7----7----|-------7---------|--5--------------|
--7----5----7----7----|--5----7----5----|--5----5----7----|
--5----5----5----5----|--5----5----5----|--3----5----7----|
----------------------|-----------------|-------3----5----|

[ Tab from: http://www.guitartabs.cc/tabs/m/magnum/rockin_chair_tab.html ]
                                                                      
-----------------------|----------------------|----------------------|------------|
-----------------------|----------------------|----------------------|------------|
--7----10----5---------|----------------------|----------------------|------------|
--7----10----5----3h---|--5----5----5----3----|--3----3h---5----5----|--5----3----|
--5----8-----3----3h---|--5----5----5----3----|--3----3h---5----5----|--5----3----|
------------------3----|--3----3----3----3----|--3----3----3----3----|--3----3----|


                                                               
|------------------------|------------------------|
|------------------------|------------------------|
|--10---------10---------|--10---------10---------|
|--10---------10---------|--10---------10---------|
|--8-----8----8-----8----|--8-----8----8-----8----|
|------------------------|------------------------|


                                                                         
------------------------|------------------------|----------------------|
------------------------|------------------------|----------------------|
------------------------|------------------------|----------------------|
--10---------10---------|--10---------10---------|--5----5----4----4----|
--7-----7----7-----7----|--7-----7----7-----7----|--5----5----5----5----|
------------------------|------------------------|----------------------|


                                                                              
----------------------|----------------------|------|------------------------|
----------------------|----------------------|------|------------------------|
----------------------|----------------------|------|------------------------|
--5----5----4----4----|--5----5----4----4----|------|--10---------10---------|
--5----5----5----5----|--5----5----5----5----|------|--8-----8----8-----8----|
----------------------|----------------------|------|------------------------|


                                                                           
------------------------|------------------------|------------------------|
------------------------|------------------------|------------------------|
------------------------|------------------------|------------------------|
--10---------10---------|--10---------10---------|--10---------10---------|
--8-----8----8-----8----|--7-----7----7-----7----|--7-----7----7-----7----|
------------------------|------------------------|------------------------|


         
-------||
-------||
--2----||
--2----||
--0----||
-------|| Oh, oh, oh, oh, oh better beware! 



And bla, bla, bla, bla.... All riffs is up there, just listen to the song to get it right.

__________________________________________________________________________

Any wanted Magnum tab goes to meek@spray.se

Cya!
Comments