Mae - Tisbury Lane Chords & Tabs

 

Tisbury Lane Chords & Tabs

Mae Chords & Tabs

Version: 2 Type: Tab 0 ratings
1 star 2 stars 3 stars 4 stars 5 stars
comments

Tisbury Lane Tab

Key:
H-Hard
x-Don't play that string
0-Play the string
v-Strum Down
^-Strum Up

Tuning: Standard

This is my first actual tab. I saw the other one that was tabbed out and I was a little...iffy on it,
it needed some spicing up to it. 
Beginning starts out with electric guitar but there is absolutely no distortion whatsoever. If you 
Play on Acoustic guitar, it won't really sound as good and MAKE SURE that the e string is in tune or 
when you play the 2nd part at 1:33 it will sound like crap. Another note too: when you play each "chord", 
kind of mute it right after... so it doesn't have the ringing effect to it. This song have a very clean
effect to it.

e|----x----x-----x----x------x----x-----x----x------x----x-----x----x------x----x------------|
B|----x----x-----x----x------x----x-----x----x------x----x-----x----x------x----x------------|
G|----9----9-----9----9------4----4-----4----4------2----2-----2----2------4----4------------|
D|----9----9-----9----9------4----4-----4----4------2----2-----2----2------4----4------------|  x8
A|----x----x-----x----x------x----x-----x----x------x----x-----x----x----2-2--2-2---3--2--0--|
E|0h9-x--9-x---9-x--9-x--0h4-x--4-x---4-x--4-x--0h2-x--2-x---2-x--2-x------x----x------------|



(1:33)... theres another guitar in the back ground that kind of plucks 9 on the G and D string
on and off. 

e|---x----x----x----x-----7----7----7----7-------x----x----x----x-------x----x----x----x
B|---x----x----x----x-----x----x----x----x-------x----x----x----x-------x----x----x----x
G|---9----9----9----9-----9----9----9----9-------9----9----9----9-------4----4----4----4
D|---9----9----9----9-----9----9----9----9-------9----9----9----9-------4----4----4----4
A|-9-x--9-x--9-x--9-x---0-x--0-x--0-x--0-x-------x----x----x----x-------x----x----x----x
E|-------------------------------------------0h9-x--9-x--9-x--9-x---0h4-x--4-x--4-x--4-x



(1:45)
e|---x----x----x----x-----7----7----7----7-------x----x----x----x-------x----x------0-------x
B|---x----x----x----x-----x----x----x----x-------x----x----x----x-------x----x------0-------0
G|---9----9----9----9-----9----9----9----9-------9----9----9----9-------4----4------2-------2
D|---9----9----9----9-----9----9----9----9-------9----9----9----9-------4----4------2-------2
A|-9-x--9-x--9-x--9-x---0-x--0-x--0-x--0-x-------x----x----x----x-------x----x------x-------x
E|-------------------------------------------0h9-x--9-x--9-x--9-x---0h4-x--4-x4-3-2-2--0h2--x

Guitar 2 in background at (1:48).. its really silent, kind of hard to hear. 

e|----------
B|-12-------
G|----11----
D|--------9-
A|----------
E|----------


(2:03)
Starting here, there is another guitar that plays in the background but its a little difficult to hear
exactly what is played, so I didn't write it
its almost like he's mimicing what is being played here. 

e|-------x----x-----x----x---------x----x-----x----x---------x----x-----x----x------x----x------------|
B|-------x----x-----x----x---------x----x-----x----x---------x----x-----x----x------x----x------------|
G|-------9----9-----9----9---------4----4-----4----4---------2----2-----2----2------4----4------------|
D|-------9----9-----9----9---------4----4-----4----4---------2----2-----2----2------4----4------------| x2
A|-------x----x-----x----x---------x----x-----x----x---------x----x-----x----x----2-2--2-2---3--2--0--|
E|---0h9-x--9-x---9-x--9-x-----0h4-x--4-x---4-x--4-x-----0h2-x--2-x---2-x--2-x------x----x------------|


(2:26)

e|-------x--x--x--x---------x----x-----x----x---------x----x-----x----x------x----x----|
B|-------x--x--x--x---------x----x-----x----x---------x----x-----x----x------x----x----|
G|-------9--9--9--9---------4----4-----4----4---------2----2-----2----2------4----4----|
D|-------9--9--9--9---------4----4-----4----4---------2----2-----2----2------4----4----| 
A|-------x--x--x--x---------x----x-----x----x---------x----x-----x----x----2-2--2-2----|
E|-------9--9--9--9-----0h4-x--4-x---4-x--4-x-----0h2-x--2-x---2-x--2-x------x----x----|
After this, the bass takes over for the 3--2--0 part at the end

(2:37)

e|-------x----x-----x----x---------x----x-----x----x---------x----x-----x----x------x----x---|
B|-------x----x-----x----x---------x----x-----x----x---------x----x-----x----x------x----x---|
G|-------9----9-----9----9---------4----4-----4----4---------2----2-----2----2------4----4---|
D|-------9----9-----9----9---------4----4-----4----4---------2----2-----2----2------4----4---| x2  
A|-------x----x-----x----x---------x----x-----x----x---------x----x-----x----x----2-2--2-2---|
E|---0h9-x--9-x---9-x--9-x-----0h4-x--4-x---4-x--4-x-----0h2-x--2-x---2-x--2-x------x----x---| 

(3:12)
[ Tab from: http://www.guitartabs.cc/tabs/m/mae/tisbury_lane_tab_ver_2.html ]
e|-------x--x--x--x---------x----x-----x----x---------x----x-----x----x------x----x----|
B|-------x--x--x--x---------x----x-----x----x---------x----x-----x----x------x----x----|
G|-------9--9--9--9---------4----4-----4----4---------2----2-----2----2------4----4----|
D|-------9--9--9--9---------4----4-----4----4---------2----2-----2----2------4----4----| 
A|-------x--x--x--x---------x----x-----x----x---------x----x-----x----x------2----2----|
E|-------9--9--9--9-----0h4-x--4-x---4-x--4-x-----0h2-x--2-x---2-x--2-x----0-x--0-x----|

(3:23)


e|-------x----x-----x----x---------x----x-----x----x---------x----x-----x----x------x----x---|
B|-------x----x-----x----x---------x----x-----x----x---------x----x-----x----x------x----x---|
G|-------9----9-----9----9---------4----4-----4----4---------2----2-----2----2------4----4---|
D|-------9----9-----9----9---------4----4-----4----4---------2----2-----2----2------4----4---|  
A|-------x----x-----x----x---------x----x-----x----x---------x----x-----x----x------2----2---|
E|---0h9-x--9-x---9-x--9-x-----0h4-x--4-x---4-x--4-x-----0h2-x--2-x---2-x--2-x----0-x--0-x---|


(3:35)


e|---x----x----x----x-----7----7----7----7-------x----x----x----x-------x----x----x----x
B|---x----x----x----x-----x----x----x----x-------x----x----x----x-------x----x----x----x
G|---9----9----9----9-----9----9----9----9-------9----9----9----9-------4----4----4----4
D|---9----9----9----9-----9----9----9----9-------9----9----9----9-------4----4----4----4
A|-9-x--9-x--9-x--9-x---0-x--0-x--0-x--0-x-------x----x----x----x-------x----x----x----x
E|-------------------------------------------0h9-x--9-x--9-x--9-x---0h4-x--4-x--4-x--4-x



(3:47)
e|---x----x----x----x-----7----7----7----7-------x----x----x----x-------x----x------0-0------x-x
B|---x----x----x----x-----x----x----x----x-------x----x----x----x-------x----x------0-0------0-0
G|---9----9----9----9-----9----9----9----9-------9----9----9----9-------4----4------2-2------2-2
D|---9----9----9----9-----9----9----9----9-------9----9----9----9-------4----4------2-2------2-2
A|-9-x--9-x--9-x--9-x---0-x--0-x--0-x--0-x-------x----x----x----x-------x----x------x-x------x-x
E|-------------------------------------------0h9-x--9-x--9-x--9-x---0h4-x--4-x4-3-2-2-2--0h2-x-x 

(4:04)
Add Slight distortion and this time you can let the chords ring out

e|-------x----x-----x----x---------x----x-----x----x---------x----x----------x---x-------x----x---|
B|-------x----x-----x----x---------x----x-----x----x---------x----x----------x---x-------x----x---|
G|-------9----9-----9----9---------4----4-----4----4---------2----2--1 2 1---x---2-------4----4---|
D|-------9----9-----9----9---------4----4-----4----4---------2----2----------2---2-------4----4---|  
A|-------x----x-----x----x---------x----x-----x----x---------x----x----------x---x-------2----2---|
E|---0h9-x--9-x---9-x--9-x-----0h4-x--4-x---4-x--4-x-----0h2-x--2-x--------2-x-2-x-----0-x--0-x---|




e|----x----x----------x----x----x--x-x--x--x---------x----x----------x---x-------x----x----x----x-|
B|----x----x----------x----x----x--x-x--x--x---------x----x----------x---x-------x----x----x----x-|
G|----9----9--9-8-9---9----4----4--4-4--4--4---------2----2--1 2 1---x---2-------4----4----4----4-|
D|----9----9----------9----4----4--4-4--4--4---------2----2----------2---2-------4----4----4----4-|  x3
A|----x----x----------x----x----x--x-x--x--x---------x----x----------x---x-------2----2----2----2-|
E|0h9-x--9-x--------9-x--4-x--4-x--4-4--4--4-----0h2-x--2-x--------2-x-2-x-------x----x----x----x-|
					      v ^  v  ^
						    	
(4:51)

e|----------------------------------------------------------------------|
B|----------------------------------------------------------------------|
G|---13--8--13--9--6--4--5----------13--16--8--13--9--6--4--5--4--------|
D|---x---x--x---x--x--x--x----------x---x---x--x---x--x--x--x--x--2-----|
A|---11--6--11--7--4--2--3----------11--14--6--11--7--4--2--3--2--0-----|
E|----------------------------------------------------------------------|
For this, strum each a few times.. Im getting too lazy to write it out


e|-------x----x-----x----x---------x----x-----x----x---------x----x-----x----x------x----x------------|
B|-------x----x-----x----x---------x----x-----x----x---------x----x-----x----x------x----x------------|
G|-------9----9-----9----9---------4----4-----4----4---------2----2-----2----2------4----4------------|
D|-------9----9-----9----9---------4----4-----4----4---------2----2-----2----2------4----4------------|  x2
A|-------x----x-----x----x---------x----x-----x----x---------x----x-----x----x----2-2--2-2---3--2--0--|
E|---0h9-x--9-x---9-x--9-x-----0h4-x--4-x---4-x--4-x-----0h2-x--2-x---2-x--2-x------x----x------------|

And that should be it! If you have any questions or you think something should be added and you heard 
something I didnt... PLEASE IM me or email me
AIM: PsychoitcChyld
Email: Sara@MrFerret.com
Comments