Mae - Tisbury Lane Chords & Tabs

 

Tisbury Lane Chords & Tabs

Mae Chords & Tabs

Version: 1 Type: Tab 0 ratings
1 star 2 stars 3 stars 4 stars 5 stars
comments

Tisbury Lane Tab

Band - Mae
Song - Tisbury Lane

Tuning: Standard

e|---------------------------------------------------------------------------|
B|---------------------------------------------------------------------------|
G|---9---9---9---9------4---4---4---4------2---2---2---2-------4---4---------|
D|---9---9---9---9------4---4---4---4------2---2---2---2-------4---4---------| x8
A|-----------------------------------------------------------0h2---2---3-2-0-|
E|-0h9---9---9---9----0h4---4---4---4----0h2---2---2---2---------------------|

e|---0-------0-------0-------0-------|
B|---0-------0-------0-------0-------|
G|---9-------9-------9-------4-------|
D|---9-------9-------9-------4-------| x2
A|---0-------------------------------|
E|-----------7-------9-------4-------|

e|---------0------------0------|
B|----------0-----------0------|
G|-----------2----------2------|
D|------------2---------2------|
A|-------------x--------x------|
E|---4-3-2------2--0h2--2------|

e|---------------------------------------------------------------------------|
B|---------------------------------------------------------------------------|
G|---9---9---9---9------4---4---4---4------2---2---2---2-------4---4---------|
D|---9---9---9---9------4---4---4---4------2---2---2---2-------4---4---------| x8
A|-----------------------------------------------------------0h2---2---3-2-0-|
E|-0h9---9---9---9----0h4---4---4---4----0h2---2---2---2---------------------|
[ Tab from: http://www.guitartabs.cc/tabs/m/mae/tisbury_lane_tab.html ]
e|---0-------0-------0-------0-------|
B|---0-------0-------0-------0-------|
G|---9-------9-------9-------4-------|
D|---9-------9-------9-------4-------| x2
A|---0-------------------------------|
E|-----------7-------9-------4-------|

e|---------0------------0------|
B|----------0-----------0------|
G|-----------2----------2------|
D|------------2---------2------|
A|-------------x--------x------|
E|---4-3-2------2--0h2--2------|

e|-----------------------------------------|
B|-----------------------------------------|
G|---9--8h9p8---4---2--1h2h1---------------|
D|---9----------4---2----------4---5-------| x4
A|---x----------x---x----------2---3-------|
E|---9----------4---2----------------------|

e|----------------------------------------------------------------------|
B|----------------------------------------------------------------------|
G|---13--8--13--9--6--4--5----------13--16--8--13--9--6--4--5--4--------|
D|---x---x--x---x--x--x--x----------x---x---x--x---x--x--x--x--x--2-----|
A|---11--6--11--7--4--2--3----------11--14--6--11--7--4--2--3--2--0-----|
E|----------------------------------------------------------------------|

e|---------------------------------------------------------------------------|
B|---------------------------------------------------------------------------|
G|---9---9---9---9------4---4---4---4------2---2---2---2-------4---4---------|
D|---9---9---9---9------4---4---4---4------2---2---2---2-------4---4---------| x2
A|-----------------------------------------------------------0h2---2---3-2-0-|
E|-0h9---9---9---9----0h4---4---4---4----0h2---2---2---2---------------------|
Comments