Mae - Suspension Chords & Tabs

 

Suspension Chords & Tabs

Mae Chords & Tabs

Version: 4 Type: Tab

Suspension Tab

Mae
"Suspension"
Tabbed by Andrew
Tuning Standard

Intro:
E----------------------------------|
B-------8-11-------8-8---9-8-------|
G--8h10------8-10------8-----10-8--|
D----------------------------------|
A----------------------------------|
E----------------------------------|

Verses:
E--------------------------------------------------------------------------------|
B--------------------------------------------------------------------------------|
G--8-----------------------------------------------------------------------------|
D--8---------------------6---------------------------10----------8---------------|
A--6---------------------6---------------------------10----------8---------------|
E------------------------4---------------------------8-----------6---------------|
  "Maybe I'm alright,or maybe I'm just scared, I've figured out, what you..."
  "Now I'm wanting..,     and I'll beg for nothing more,         I'll plan.."

E----------------------------------------------------------------------------|
B----------------------------------------------------------------------------|
G--8-------------------------------------------------------------------------|
D--8------------------------6--------------------8---------------------------|
A--6------------------------6--------------------8---------------------------|
E---------------------------4--------------------6---------------------------|
"I don't need to know right now, all I know is I belive,"
"I can't seem to stop this now, even if it's not so clear"

E----------------------------------------------------------------------------|
B----------------------------------------------------------------------------|
G-8--------------------------------------------------------------------------|
D-8-------------------------6---------------------8--------------------------|
A-6-------------------------6---------------------8--------------------------|
E---------------------------4---------------------6--------------------------|
"The very thing that got us here, and now I can't leave."
"Buy I'll take what I can get,                     If you want me here"
[ Tab from: http://www.guitartabs.cc/tabs/m/mae/suspension_tab_ver_4.html ]
Chorus 1:
E----------------------------------------------------------------------------|
B----------------------------------------------------------------------------|
G-8--------------------------------------------------------------------------|
D-8-------6-----------------10---------------8-------------------------------|
A-6-------6-----------------10---------------8-------------------------------|
E---------4-----------------8----------------6-------------------------------|
"Say anything. Say what you mean. Cause I'm caught in suspension."

E------------------------------8---------------------------------------------|
B-------8---9--------11------------------------------------------------------|
G--8h10---8---8-10-8----8-10-8---8-10-8--------------------------------------|
D----------------------------------------------------------------------------|
A----------------------------------------------------------------------------|
E----------------------------------------------------------------------------|


Chorus 2
E----------------------------------------------------------------------------|
B----------------------------------------------------------------------------|
G-8--------------------------------------------------------------------------|
D-8--------6----------------10---------------8--------6-----------------8----|
A-6--------6----------------10---------------8--------6-----------------8----|
E----------4----------------8----------------6--------4-----------------6----|
"Say anything. Say what you mean.  When you whisper...here I stand the same."

The riff after this chorus is the same as the last one.

Interlude:
E----------------------------------------------------------------------------|
B----------------------------------------------------------------------------|
G-8--------------------------------------------------------------------------|
D-8--------------------------------6---------------------------10--8--6--8---|
A-6--------------------------------6---------------------------10--8--6--8---|
E----------------------------------4---------------------------8---6--4--6---|
"It's enough for me to get excited, it's enough for me to feel aheaaadddd!"

The riff after the interlude is the same as the intro and the final chorus is the same 
the last two.  Enjoy!  It's a catchy tune.