Mae - Skyline Drive Chords & Tabs

 

Skyline Drive Chords & Tabs

Mae Chords & Tabs

Version: 1 Type: Tab 0 ratings
1 star 2 stars 3 stars 4 stars 5 stars
comments

Skyline Drive Tab

   
I'm not sure if this is the exact tab, but it sounds pretty good throughout the whole
song. It could be used as the rough draft for the tabs of this song so others like you
could edit and post new ones based on this. Thank you!
                                                   -Alan N.-

----------------------------------------------------------------------------
			     Skyline Drive - MAE
----------------------------------------------------------------------------
Tabbed by: Alan Nguyen
Email: (n/a)

Tuning:e,B,G,D,A,e

Organ intro---

Guitar 1-
e|---7---6--/9---7---4---2---2---2-----6---2-----------6---2---------------|
B|---------------------------------------4---------------4-----------------|
G|---8-8-------------4-4---------------------------------------------------|
D|-------------------------------------------------------------------------|
A|-------------------------------------------------------------------------|
E|-------------------------------------------------------------------------|
Guitar 2- along w/ Guitar 1 (same time)
e|-------------------------------------------------------------------------|
B|---------------------------------------------4-5/7-----------4-5/7-------|
G|-------------------------------------------------------------------------|
D|-------------------------------------------------------------------------|
A|-----2---2---2---2---2---2---2---2---------------------------------------|
E|-------------------------------------------------------------------------|
                                x2

Verse 1- "Sometimes I run.....the sunset I see"
Guitar 1-
e|---7---6--/9---7---4---2---2---2-----6---2-----------6---2---------------|
B|---------------------------------------4---------------4-----------------|
G|---8-8-------------4-4---------------------------------------------------|
D|-------------------------------------------------------------------------|
A|-------------------------------------------------------------------------|
E|-------------------------------------------------------------------------|
Guitar 2- along w/ Guitar 1 (same time)
e|-------------------------------------------------------------------------|
B|---------------------------------------------4-5/7-----------4-5/7-------|
G|-------------------------------------------------------------------------|
D|-------------------------------------------------------------------------|
A|-----2---2---2---2---2---2---2---2---------------------------------------|
E|-------------------------------------------------------------------------|
                                 x2

Interlude - "You make it seems like.....Why can't I?"
Guitar 1 or Both Guitars
e|--0---0---0---0---0---0---0---0---0---0---0---0---0---0---0---0----------|
B|--0---0---0---0---0---0---0---0---0---0---0---0---0---0---0---0----------|
G|--6---6---6---6---4---4---4---4---4---4---4---4---6---6---6---6----------|
D|--6---6---6---6---4---4---4---4---6---6---6---6---7---7---7---7----------|
A|--4---4---4---4---2---2---2---2---6---6---6---6---7---7---7---7----------|
E|--x---x---x---x---x---x---x---x---x---x---x---x---x---x---x---x----------|
                                 x2

e|---000000000----|
B|---000000000----|
G|---666666666----|
D|---777777777----|(faster strumming speed)
A|---777777777----|
E|---xxxxxxxxx----|
Guitar 2- along w/ Guitar 1
e|----------------|
B|---545454545----|
G|----------------|
D|----------------|
A|----------------|
E|----------------|

Guitar 2
e|-----------2----------|
B|---5---4-------4------|
G|-----4---4---4---4----|
D|----------------------|
A|----------------------|
E|----------------------|x4

Drum starts here
Guitar 1-
e|---7---6--/9---7---4---2---2---2-----6---2-----------6---2---------------|
B|---------------------------------------4---------------4-----------------|
G|---8-8-------------4-4---------------------------------------------------|
D|-------------------------------------------------------------------------|
A|-------------------------------------------------------------------------|
E|-------------------------------------------------------------------------|
Guitar 2- along w/ Guitar 1 (same time)
e|-------------------------------------------------------------------------|
B|---------------------------------------------4-5/7-----------4-5/7-------|
G|-------------------------------------------------------------------------|
D|-------------------------------------------------------------------------|
A|-----2---2---2---2---2---2---2---2---------------------------------------|
E|-------------------------------------------------------------------------|
                                 x2
[ Tab from: http://www.guitartabs.cc/tabs/m/mae/skyline_drive_tab.html ]
Verse 2- "Why must you say.....But will I do?"
Guitar 1-
e|---7---6--/9---7---4---2---2---2-----6---2-----------6---2---------------|
B|---------------------------------------4---------------4-----------------|
G|---8-8-------------4-4---------------------------------------------------|
D|-------------------------------------------------------------------------|
A|-------------------------------------------------------------------------|
E|-------------------------------------------------------------------------|
Guitar 2- along w/ Guitar 1 (same time)
e|-------------------------------------------------------------------------|
B|---------------------------------------------4-5/7-----------4-5/7-------|
G|-------------------------------------------------------------------------|
D|-------------------------------------------------------------------------|
A|-----2---2---2---2---2---2---2---2---------------------------------------|
E|-------------------------------------------------------------------------|
                                  x4
Chorus x2- "Sometimes I drive.....sleep tonight"(x2)
e|---0---0---0---0---0---0---0---0---0---0---0---0---0---0---0---0--|
B|---0---0---0---0---0---0---0---0---0---0---0---0---0---0---0---0--|
G|---4---4---4---4---x---x---x---x---x---x---x---x---x---x---x---x--|
D|---4---4---4---4---2---2---2---2---6---6---6---6---2---2---2---2--|
A|---2---2---2---2---2---2---2---2---6---6---6---6---2---2---2---2--|
E|---x---x---x---x---0---0---0---0---4---4---4---4---0---0---0---0--|x4

Guitar 1
e|---2-------2-------2-------2-------0-------0-------0-------0------------|
B|-----0---0---0---0---0---0---0---0---4---4---4---4---4---4---4----------|
G|-------3-------3-------3-------3-------4-------4-------4-------4--------|
D|------------------------------------------------------------------------|
A|------------------------------------------------------------------------|
E|------------------------------------------------------------------------|
Guitar 2- along w/ Guitar 1 (same time)
e|------------------------------------------------------------------------|
B|------------------------------------------------------------------------|
G|------------------------------------------------------------------------|
D|------------------------------------------------------------------------|
A|------------------------------------------------------------------------|
E|---7-7-7-7-7-7-7-7-0-0-0-0-0-0-2-2/4-4-4-4-4-4-4-4-0-0-0-0-0-0-0--------|

Guitar 1
e|-------7-------7-------7-------7---0-------0-------0-------0-------0----|
B|-------------------------------------4---4---4---4---4---4---4---4---4--|
G|---8-9---9-8-9---9-8-9---9-8-9---------4-------4-------4-------4-------4|
D|------------------------------------------------------------------------|
A|------------------------------------------------------------------------|
E|------------------------------------------------------------------------|
Guitar 2- along w/ Guitar 1 (same time)
e|------------------------------------------------------------------------|
B|------------------------------------------------------------------------|
G|------------------------------------------------------------------------|
D|------------------------------------------------------------------------|
A|---4-4-4-4-4-4-4/6-6/9-9-9-9-9-9-9\7-6-6-6-6-6-6-6-6-6-6/8-8-8-8/9-9-9-9|
E|-----------------------------------------4-4-4-4-4-4-4-4/6-6-6-6/7-7-7-7| 

Ending 
Guitar 1
e|---0-0-0-0-0-0-0-0-0-0-0-0-0-0-0-0-0-0-0-0-0-0-0-0-0-0-0-0-0-0-0-0|
B|---0-0-0-0-0-0-0-0-0-0-0-0-0-0-0-0-0-0-0-0-0-0-0-0-0-0-0-0-0-0-0-0|
G|---4-4-4-4-4-4-4-4-x-x-x-x-x-x-x-x-x-x-x-x-x-x-x-x-x-x-x-x-x-x-x-x|
D|---4-4-4-4-4-4-4-4-2-2-2-2-2-2-2-2-6-6-6-6-6-6-6-6-2-2-2-2-2-2-2-2|
A|---2-2-2-2-2-2-2-2-2-2-2-2-2-2-2-2-6-6-6-6-6-6-6-6-2-2-2-2-2-2-2-2|
E|---x-x-x-x-x-x-x-x-0-0-0-0-0-0-0-0-4-4-4-4-4-4-4-4-0-0-0-0-0-0-0-0|
Guitar 2- along w/ Guitar 1 (same time)
e|---0-0-0-0-0-0-0-0-0-0-0-0-0-0-0-0-0-0-0-0-0-0-0-0-0-0-0-0-0-0-0-0|
B|---0-0-0-0-0-0-0-0-0-0-0-0-0-0-0-0-0-0-0-0-0-0-0-0-0-0-0-0-0-0-0-0|
G|---6-6-6-6-6-6-6-6\4-4-4-4-4-4-4-4-4-4-4-4-4-4-4-4-4-4-4-4-4-4-4-4|
D|---6-6-6-6-6-6-6-6\4-4-4-4-4-4-4-4-4-4-4-4-4-4-4-4-4-4-4-4-4-4-4-4|
A|---4-4-4-4-4-4-4-4\2-2-2-2-2-2-2-2-2-2-2-2-2-2-2-2-2-2-2-2-2-2-2-2|
E|---0-0-0-0-0-0-0-0-0-0-0-0-0-0-0-0-0-0-0-0-0-0-0-0-0-0-0-0-0-0-0-0|
                                  x3
Guitar 1
e|---0-0-0-0-0-0-0-0-0-0-0-0-0-0-0-0-0-0-0-0-0-0-0-0-0-0-0-0-0-0-0-0|
B|---0-0-0-0-0-0-0-0-0-0-0-0-0-0-0-0-0-0-0-0-0-0-0-0-0-0-0-0-0-0-0-0|
G|---4-4-4-4-4-4-4-4-x-x-x-x-x-x-x-x-x-x-x-x-x-x-x-x-x-x-x-x-x-x-x-x|
D|---4-4-4-4-4-4-4-4-2-2-2-2-2-2-2-2-6-6-6-6-6-6-6-6-2-2-2-2-2-2-2-2|
A|---2-2-2-2-2-2-2-2-2-2-2-2-2-2-2-2-6-6-6-6-6-6-6-6-2-2-2-2-2-2-2-2|
E|---x-x-x-x-x-x-x-x-0-0-0-0-0-0-0-0-4-4-4-4-4-4-4-4-0-0-0-0-0-0-0-0|
Guitar 2- along w/ Guitar 1 (same time)
e|---0-0-0-0-0-0-0-0-0-0--0--0--0--0--0--0--0-0-0-0-0-0-0-0-0-0-0-0-0-0-0-0|
B|---0-0-0-0-0-0-0-0-0-0--0--0--0--0--0--0--0-0-0-0-0-0-0-0-0-0-0-0-0-0-0-0|
G|---6-6-6-6-6-6-6/8-8/11-11-11-11-11-11-11-8-8-8-8-8-8-8-8-9-9-9-9-9-9-9-9|
D|---6-6-6-6-6-6-6/8-8/11-11-11-11-11-11-11-9-9-9-9-9-9-9-9-9-9-9-9-9-9-9-9|
A|---4-4-4-4-4-4-4/6-6/9--9--9--9--9--9--9--9-9-9-9-9-9-9-9-7-7-7-7-7-7-7-7|
E|---x-x-x-x-x-x-x-x-x-x--x--x--x--x--x--x--x-x-x-x-x-x-x-x-x-x-x-x-x-x-x-x|

Finish on
Guitar 1
e|---0---|
B|---0---|
G|---4---|
D|---4---|
A|---2---|
E|---x---|
Guitar 2 (together w/ Guitar 1)
e|---2---|
B|---4---|
G|---4---|
D|---4---|
A|---2---|
E|---2---|


| /  slide up
| \  slide down
| h  hammer-on
| p  pull-off
| ~  vibrato
| +  harmonic
| x  Mute note

Thanks for using my new tab. Please make the changes necessary on new posts to help
others playing this awesome song. 
============================================================================
Comments