Mae - Embers And Envelopes Chords & Tabs

 

Embers And Envelopes Chords & Tabs

Mae Chords & Tabs

Version: 1 Type: Tab 0 ratings
1 star 2 stars 3 stars 4 stars 5 stars
comments

Embers And Envelopes Tab

   
---------------------------------------------------------
	  EMBERS AND ENVELOPES - Mae
---------------------------------------------------------
Tabbed by: Sean Green	
Email: the_bunglist@yahoo.com

Tuning: E

INTRO

e|-10---7---7-7---3-3-2-2-10---7---7-7---3-3-2----------|
B|----------------------------------------------3-------|
G|----0---0-----0-0-0-0-0-------0------0-0-0-0----------|
D|------------------------------------------------------|
A|------------------------------------------------------|
E|------------------------------------------------------|

Sorry, i don't know the second part of the intro!

The chords for the verse are: G, E, C, E

CHORUS
[ Tab from: http://www.guitartabs.cc/tabs/m/mae/embers_and_envelopes_tab.html ]
e|------------------------------------------------------|
B|------------------------------------------------------|
G|----------------------------5-5-5-5-------------------|
D|-5-5-5-5--5-5-5-5--2-2-2-2--5-5-5-5-------------------|
A|-5-5-5-5--2-2-2-2--2-2-2-2--3-3-3-3-------------------|
E|-3-3-3-3-----------0-0-0-0----------------------------|

BREAK AFTER THE 2ND CHORUS

e|-10-7-7-7-3-3-2-2--x3---10-7-7-7-3-3-5-5--------------|
B|------------------------------------------------------|
G|------------------------------------------------------|
D|------------------------------------------------------|
A|------------------------------------------------------|
E|------------------------------------------------------|

e|------------------------------------------------------|
B|------------------------------------------------------|
G|--7-------------------7------------8-7----------------|
D|-----x12------5-4--------x12---7-5-----7-2------------|
A|--5-------5-3-----5---5-------------------------------|
E|------------------------------------------------------|

I know it's not 100%, but it's close. x12 means play that
12 times, not muted on the 12th fret. If you found this
tab helpful, rate it!
=========================================================
Comments