Mae - Anything Chords & Tabs

 

Anything Chords & Tabs

Mae Chords & Tabs

Version: 1 Type: Tab 0 ratings
1 star 2 stars 3 stars 4 stars 5 stars
comments

Anything Tab

   
-------------------------------------------------------------------------------
			     SONG NAME - Band Name
-------------------------------------------------------------------------------
Tabbed by: Maefan_001
Email: Footymonkey@aol.com - Don't bother mailing me, I'll only delete it

Tuning:

e|-----------------13-----------------------------13---13---13--13------|
B|---15----------------------------15-----------------------------------|
G|------12--14--15-----12--14--15------12--14--15----12---12--------15--|
D|----------------------------------------------------------------------|
A|----------------------------------------------------------------------|
E|----------------------------------------------------------------------|

(x2)

(Chorus)

e|---13----------------13--------------13--------------13------------------|
B|-------11---------------11---------------11--------------15--------------|
G|------------14--15----------14---15----------14--15----------12--14--15--|
D|-------------------------------------------------------------------------|
A|-------------------------------------------------------------------------|
E|-------------------------------------------------------------------------|

(x2)
[ Tab from: http://www.guitartabs.cc/tabs/m/mae/anything_tab.html ]
e|----13---------------------------------------------------------------------------|
B|---------11----------------------------------------------------------------------|
G|--------------14--15-------------------------------------------------------------|
D|---------------------------------------------------------------------------------|
A|---------------------------------------------------------------------------------|
E|---------------------------------------------------------------------------------|

(x6)

(Chorus)

e|----6---------------------------------------3-------6---------------------------|
B|----8---------------------------------------5-------8---------------------------|
G|----8---------------------------------------5-------8---------------------------|
D|--------------------------------------------------------------------------------|
A|--------------------------------------------------------------------------------|
E|--------------------------------------------------------------------------------|

(x4)
(I can't be bothered to write the strumming pattern)

(Verse)

(Chorus)

(Bridge- I've not yet figured this out yet, but i do know 3 notes of it)

(Chorus)

(Outro- It's the same as the Intro)

| /  slide up
| \  slide down
| h  hammer-on
| p  pull-off
| ~  vibrato
| +  harmonic
| x  Mute note
===============================================================================
Comments