Madrugada - Beautyproof Chords & Tabs

 

Beautyproof Chords & Tabs

Madrugada Chords & Tabs

Version: 1 Type: Tab 0 ratings
1 star 2 stars 3 stars 4 stars 5 stars
comments

Beautyproof Tab

   
Here is my version of the Beautyproof intro!
Please correct me if I'm wrong..!
E-mail: christph@hotmail.com
[ Tab from: http://www.guitartabs.cc/tabs/m/madrugada/beautyproof_tab.html ]
e|-------------------------------------------
B|-------------------------------------------
G|-----------------5-5-5-5-5-5-5-------------
D|-3-3-3-3-3-3-3-3-3-3-3-3-3-3-3-0-1-1-1-1-1-
A|-5-5-5-5-5-5-5-5-5-5-5-5-5-5-5-0-3-3-3-3-3-
E|-------------------------------------------

e|----------------------
B|----------------------
G|----------------------
D|----------------------
A|-------1-1-1-1-1-1----
E|-0-1-3-3-3-3-3-3-3----
Comments