Madonna - X-static Process Chords & Tabs

 

X-static Process Chords & Tabs

Madonna Chords & Tabs

Version: 2 Type: Tab 0 ratings
1 star 2 stars 3 stars 4 stars 5 stars
comments

X-static Process Tab

Tabbed by: The Magster
Email: SuPeRmAgGiE2oo5@netscape.net

Tuning: standard

intro/verse ("I'm not myself when..."): 

e|---------------------------------------------------------------------------|
B|-1---1---1----1---1---1----0---0---0----1---1---1--------------------------|
G|---2-------2----2-------2----0-------0----2-------2------------------------|
D|---------------------------------------------------------------------------|
A|-0-----0------3-----3-------------------0-----0----------------------------|
E|---------------------------3-----3-----------------------------------------|

above==> X2 for intro, X3 for each verse

chorus ("Jesus Christ, will you..."):
[ Tab from: http://www.guitartabs.cc/tabs/m/madonna/x_static_process_tab_ver_2.html ]
e|---------------------------|    |--------------|    |--------------|
B|-1---1-1---1-1-0---0-1---1-|    |-1---1---1----|    |-0---0---0----|
G|---2-----0-------0-----2---|    |---2-------2--|    |---0-------0--|
D|---------------------------| X3 |--------------| X4 |--------------| X4
A|-3---3-3---3-3-------0---3-|    |-3-----3------|    |--------------|
E|---------------3---3-------|    |--------------|    |-3-----3------|

bridge ("I always wished that..."):

e|-------------------------------------------------------|    
B|-1---1---1-----1---1---1----1---1---1-----1---1---1----|    
G|---2-------2-----2-------2----2-------2-----2-------2--|    
D|-------------------------------------------------------| X3 
A|-3-----3-------3-----3------0-----0-------0-----0------|    
E|-------------------------------------------------------|    

e|-------------------------------------------------------|
B|-1---1---1----1---1---1-----0---0---0----0---0---0-----|
G|---0-------0----0-------0-----0-------0----0-------0---|
D|-------------------------------------------------------|
A|-3-----3------3-----3----------------------------------|
E|----------------------------3-----3------3-----3-------|

Song Order:
VERSE
CHORUS
VERSE (at the end of this verse, omit the pickings that correspond with the chord Am)
CHORUS
BRIDGE
VERSE
CHORUS
BRIDGE 
BRIDGE

End with C { X 3 2 0 1 0 }
Comments