Madonna - Hollywood Chords & Tabs

 

Hollywood Chords & Tabs

Madonna Chords & Tabs

Version: 1 Type: Tab 0 ratings
1 star 2 stars 3 stars 4 stars 5 stars
comments

Hollywood Tab


 Artist:    Madonna
 title:     Hollywood
 Album:     American Life
 Tabbed by: Raven (kareem D)


-------------------------( I )------------------------------------ 

 The first part (from 0:00 to 3:00):

                                        |This part is played
                                        |randomly replacing (4)(5)
                                       _|_____
                                      /       \
 |-----------------------------------||-------|
 |-------3-------3-------------------||-------|
 |-----4-------2-------4-------(4)---||-------|
 |---4-------4---------------5---(5)-||-----5-|
 |-2-----------------5-----5---------||-0h2---|
 |---------5-------3-----0-----------||-------|


 
[ Tab from: http://www.guitartabs.cc/tabs/m/madonna/hollywood_tab.html ]
------------------------( II )------------------------------------

 The second part(3:00):

 im not pretty sure of this part but it sounds great to me.


                                        |This part is played
                                        |randomly replacing (2)(2)
                                       _|_____
 "Check it out"                       /       \
 |-----------------------------------||-------|
 |-----5-------5---------------(2)---||-------|
 |-------6-------4-----6-----2---(2)-||-------|
 |---6-------6-------------2---------||-----5-|
 |-4-----------------7---------------||-0h2---|
 |---------7-------5-----2-----------||-------|




 Plz email me if any mistakes are present
 or for any updates on this tab. 


 


Comments