Madonna - Dont Tell Me Chords & Tabs

 

Dont Tell Me Chords & Tabs

Madonna Chords & Tabs

Version: 3 Type: Tab 0 ratings
1 star 2 stars 3 stars 4 stars 5 stars
comments

Dont Tell Me Tab

Artist: Madonna 
Title: Don't Tell Me 
Tabbed by: bogannn@hotmail.com 

in EADGBE 

------0/2------------------------------------ 
---------3-------1--------------------------- 
----2---------------*------0---*------------- 
--0-0----(0)---2-2--*---0/2----*------0------ 
-------------0---------3----3------0/2------- 
----------------------------------3----3----- 

[ Tab from: http://www.guitartabs.cc/tabs/m/madonna/dont_tell_me_tab_ver_3.html ]
------0/2------------------------------------ 
---------3-------1--------------------------- 
----2---------------*-------0---*------------ 
--0-0----(0)---2-2--*------2----*------------ 
-------------0---------3-3---3-------000-0--- 
----------------------------------3-3-------- 

This is played throughout the song with minor  
variations.  If it doesn't work when you play 
it, then fix it. 
Comments