Madonna - Dont Tell Me Chords & Tabs

 

Dont Tell Me Chords & Tabs

Madonna Chords & Tabs

Version: 1 Type: Chords 0 ratings
1 star 2 stars 3 stars 4 stars 5 stars
comments

Dont Tell Me Chords

   
Madonna, Dont tell me.
Tabbed by Midtown, midtownwarriors@hotmail.com.
  
This song is very simple. The chords and variations are the same throughout the entire song. This is Madonna's version when she performed it on the Letterman show.
The variation: D-Am-C/G-G/B


[ Tab from: http://www.guitartabs.cc/tabs/m/madonna/dont_tell_me_crd.html ]
D                C/G
e----2--------    ----0--------
B-----3-------    -----1-------
G----2--------    ------x------
D-----0-------    -------2-----
A-------------    --------3----
E-------------    ---------3---

Am                  G/B
---0----------      ---3-----------
-----1--------      ----3----------
------2-------      -----0---------
-------2------      ------0--------
--------0-----      -------2-------
--------------      --------3------

email me with any questions..midtownwarriors@hotmail.com

 
:: Ultimate Guitar Archive :: 
http://www.ultimate-guitar.com 



Comments