Madness - Baggy Trousers Chords & Tabs

 

Baggy Trousers Chords & Tabs

Madness Chords & Tabs

Version: 3 Type: Bass Tab 0 ratings
1 star 2 stars 3 stars 4 stars 5 stars
comments

Baggy Trousers Bass Tab

Artist: Madness
Title : Baggy Trousers
Tabber: Justin van Uum
Tuning: EADG


Intro:          2x
G------------------|------------|
D------------------|------------|
A------------------|-3-3-3-3-3--|
E-----7----6--4--1-|--------1---|

Main riff ''naughty boys in nasty schools.....
G---------------------------------------------------------|
D---------------------------------------------------------|
A---3-3-3-3---3----6-6-6-6---6---8-8-8-8---8--------------|
E-1---------1----4---------4---6---------6-----7----6--4--|

                                                         Chorus                                     
                                           |1.----------||-2.------------|
G-----2-3-2-3--------------------2-3-2-3---|------------||---------------|
D-----------------2-3-2-3-----------------:|------------||---------------|
A-1-1-----------------------1-1-----------:|------------||---------------|
E-------------1-1--------------------------|-8-8-8-7-8--||8-8-8-8-7--6--4|
Jump into main riff after the repeat.


[ Tab from: http://www.guitartabs.cc/tabs/m/madness/baggy_trousers_btab_ver_3.html ]
2ndChorus                                  |1.----------||-2.------------|
G-----2-3-2-3--------------------2-3-2-3---|------------||---------------|
D-----------------2-3-2-3-----------------:|------------||---------------|
A-1-1-----------------------1-1-----------:|------------||---------------|
E-------------1-1--------------------------|-8-8-8-7-8--||8-8-8-8-7---9--|

After repeating this , jump into bridge.
G--------------------------------------------------------------------------|
D--------------------------------------------------------------------------|
A-5-5-5-7-7-7-5-5-5-2-2-0-2--5-5-5-7-7-7-5-5-5-2-2-0-2-5-5-5-7-7-7-5-5-5---|
E--------------------------------------------------------------------------|

G--------------------|
D--------------------|
A--------------------|
E-7-7-7-7-7-6-5--4---|

Outro
G-----------------------------------------------|
D---3--3--3--3--6--6--6--6--8--8--8--8----------|
A-----------------------------------------------|
E-1--1--1--1--4--4--4--4--6--6--6--6--7-6-5--4--|


Intro 1x
Main riff 2x
Chorus
Main riff 2x
2nd chorus
bridge
main riff 2x
2nd chorus
bridge 
outro till fade
Comments